  0
SECTION
  2
HEADER
  9
$ACADVER
  1
AC1018
  9
$ACADMAINTVER
 70
     0
  9
$DWGCODEPAGE
  3
ANSI_1252
  9
$INSBASE
 10
0.0
 20
0.0
 30
0.0
  9
$EXTMIN
 10
-83.94828206126992
 20
-32.34557357025462
 30
0.0
  9
$EXTMAX
 10
93.05171793872991
 20
51.43502064053457
 30
0.0
  9
$LIMMIN
 10
0.0
 20
0.0
  9
$LIMMAX
 10
12.0
 20
9.0
  9
$ORTHOMODE
 70
     0
  9
$REGENMODE
 70
     1
  9
$FILLMODE
 70
     1
  9
$QTEXTMODE
 70
     0
  9
$MIRRTEXT
 70
     1
  9
$LTSCALE
 40
1.0
  9
$ATTMODE
 70
     1
  9
$TEXTSIZE
 40
0.2
  9
$TRACEWID
 40
0.05
  9
$TEXTSTYLE
  7
Standard
  9
$CLAYER
  8
0
  9
$CELTYPE
  6
ByLayer
  9
$CECOLOR
 62
   256
  9
$CELTSCALE
 40
1.0
  9
$DISPSILH
 70
     0
  9
$DIMSCALE
 40
1.0
  9
$DIMASZ
 40
0.18
  9
$DIMEXO
 40
0.0625
  9
$DIMDLI
 40
0.38
  9
$DIMRND
 40
0.0
  9
$DIMDLE
 40
0.0
  9
$DIMEXE
 40
0.18
  9
$DIMTP
 40
0.0
  9
$DIMTM
 40
0.0
  9
$DIMTXT
 40
0.18
  9
$DIMCEN
 40
0.09
  9
$DIMTSZ
 40
0.0
  9
$DIMTOL
 70
     0
  9
$DIMLIM
 70
     0
  9
$DIMTIH
 70
     1
  9
$DIMTOH
 70
     1
  9
$DIMSE1
 70
     0
  9
$DIMSE2
 70
     0
  9
$DIMTAD
 70
     0
  9
$DIMZIN
 70
     0
  9
$DIMBLK
  1

  9
$DIMASO
 70
     1
  9
$DIMSHO
 70
     1
  9
$DIMPOST
  1

  9
$DIMAPOST
  1

  9
$DIMALT
 70
     0
  9
$DIMALTD
 70
     2
  9
$DIMALTF
 40
25.4
  9
$DIMLFAC
 40
1.0
  9
$DIMTOFL
 70
     0
  9
$DIMTVP
 40
0.0
  9
$DIMTIX
 70
     0
  9
$DIMSOXD
 70
     0
  9
$DIMSAH
 70
     0
  9
$DIMBLK1
  1

  9
$DIMBLK2
  1

  9
$DIMSTYLE
  2
Standard
  9
$DIMCLRD
 70
     0
  9
$DIMCLRE
 70
     0
  9
$DIMCLRT
 70
     0
  9
$DIMTFAC
 40
1.0
  9
$DIMGAP
 40
0.09
  9
$DIMJUST
 70
     0
  9
$DIMSD1
 70
     0
  9
$DIMSD2
 70
     0
  9
$DIMTOLJ
 70
     1
  9
$DIMTZIN
 70
     0
  9
$DIMALTZ
 70
     0
  9
$DIMALTTZ
 70
     0
  9
$DIMUPT
 70
     0
  9
$DIMDEC
 70
     4
  9
$DIMTDEC
 70
     4
  9
$DIMALTU
 70
     2
  9
$DIMALTTD
 70
     2
  9
$DIMTXSTY
  7
Standard
  9
$DIMAUNIT
 70
     0
  9
$DIMADEC
 70
     0
  9
$DIMALTRND
 40
0.0
  9
$DIMAZIN
 70
     0
  9
$DIMDSEP
 70
    46
  9
$DIMATFIT
 70
     3
  9
$DIMFRAC
 70
     0
  9
$DIMLDRBLK
  1

  9
$DIMLUNIT
 70
     2
  9
$DIMLWD
 70
    -2
  9
$DIMLWE
 70
    -2
  9
$DIMTMOVE
 70
     0
  9
$LUNITS
 70
     2
  9
$LUPREC
 70
     4
  9
$SKETCHINC
 40
0.1
  9
$FILLETRAD
 40
0.5
  9
$AUNITS
 70
     0
  9
$AUPREC
 70
     0
  9
$MENU
  1
.
  9
$ELEVATION
 40
0.0
  9
$PELEVATION
 40
0.0
  9
$THICKNESS
 40
0.0
  9
$LIMCHECK
 70
     0
  9
$CHAMFERA
 40
0.5
  9
$CHAMFERB
 40
0.5
  9
$CHAMFERC
 40
1.0
  9
$CHAMFERD
 40
0.0
  9
$SKPOLY
 70
     0
  9
$TDCREATE
 40
2454483.374977754
  9
$TDUCREATE
 40
2454483.333311088
  9
$TDUPDATE
 40
2454483.374977766
  9
$TDUUPDATE
 40
2454483.3333111
  9
$TDINDWG
 40
0.0000000116
  9
$TDUSRTIMER
 40
0.0000000116
  9
$USRTIMER
 70
     1
  9
$ANGBASE
 50
0.0
  9
$ANGDIR
 70
     0
  9
$PDMODE
 70
     0
  9
$PDSIZE
 40
0.0
  9
$PLINEWID
 40
0.0
  9
$SPLFRAME
 70
     0
  9
$SPLINETYPE
 70
     6
  9
$SPLINESEGS
 70
     8
  9
$HANDSEED
  5
1B8
  9
$SURFTAB1
 70
     6
  9
$SURFTAB2
 70
     6
  9
$SURFTYPE
 70
     6
  9
$SURFU
 70
     6
  9
$SURFV
 70
     6
  9
$UCSBASE
  2

  9
$UCSNAME
  2

  9
$UCSORG
 10
0.0
 20
0.0
 30
0.0
  9
$UCSXDIR
 10
1.0
 20
0.0
 30
0.0
  9
$UCSYDIR
 10
0.0
 20
1.0
 30
0.0
  9
$UCSORTHOREF
  2

  9
$UCSORTHOVIEW
 70
     0
  9
$UCSORGTOP
 10
0.0
 20
0.0
 30
0.0
  9
$UCSORGBOTTOM
 10
0.0
 20
0.0
 30
0.0
  9
$UCSORGLEFT
 10
0.0
 20
0.0
 30
0.0
  9
$UCSORGRIGHT
 10
0.0
 20
0.0
 30
0.0
  9
$UCSORGFRONT
 10
0.0
 20
0.0
 30
0.0
  9
$UCSORGBACK
 10
0.0
 20
0.0
 30
0.0
  9
$PUCSBASE
  2

  9
$PUCSNAME
  2

  9
$PUCSORG
 10
0.0
 20
0.0
 30
0.0
  9
$PUCSXDIR
 10
1.0
 20
0.0
 30
0.0
  9
$PUCSYDIR
 10
0.0
 20
1.0
 30
0.0
  9
$PUCSORTHOREF
  2

  9
$PUCSORTHOVIEW
 70
     0
  9
$PUCSORGTOP
 10
0.0
 20
0.0
 30
0.0
  9
$PUCSORGBOTTOM
 10
0.0
 20
0.0
 30
0.0
  9
$PUCSORGLEFT
 10
0.0
 20
0.0
 30
0.0
  9
$PUCSORGRIGHT
 10
0.0
 20
0.0
 30
0.0
  9
$PUCSORGFRONT
 10
0.0
 20
0.0
 30
0.0
  9
$PUCSORGBACK
 10
0.0
 20
0.0
 30
0.0
  9
$USERI1
 70
     0
  9
$USERI2
 70
     0
  9
$USERI3
 70
     0
  9
$USERI4
 70
     0
  9
$USERI5
 70
     0
  9
$USERR1
 40
14.5
  9
$USERR2
 40
0.0
  9
$USERR3
 40
0.0
  9
$USERR4
 40
0.0
  9
$USERR5
 40
0.0
  9
$WORLDVIEW
 70
     1
  9
$SHADEDGE
 70
     3
  9
$SHADEDIF
 70
    70
  9
$TILEMODE
 70
     1
  9
$MAXACTVP
 70
    64
  9
$PINSBASE
 10
0.0
 20
0.0
 30
0.0
  9
$PLIMCHECK
 70
     0
  9
$PEXTMIN
 10
1.00000000000000E+20
 20
1.00000000000000E+20
 30
1.00000000000000E+20
  9
$PEXTMAX
 10
-1.00000000000000E+20
 20
-1.00000000000000E+20
 30
-1.00000000000000E+20
  9
$PLIMMIN
 10
0.0
 20
0.0
  9
$PLIMMAX
 10
12.0
 20
9.0
  9
$UNITMODE
 70
     0
  9
$VISRETAIN
 70
     1
  9
$PLINEGEN
 70
     0
  9
$PSLTSCALE
 70
     1
  9
$TREEDEPTH
 70
  3020
  9
$CMLSTYLE
  2
Standard
  9
$CMLJUST
 70
     0
  9
$CMLSCALE
 40
1.0
  9
$PROXYGRAPHICS
 70
     1
  9
$MEASUREMENT
 70
     1
  9
$CELWEIGHT
370
    -1
  9
$ENDCAPS
280
     0
  9
$JOINSTYLE
280
     0
  9
$LWDISPLAY
290
     0
  9
$INSUNITS
 70
     1
  9
$HYPERLINKBASE
  1

  9
$STYLESHEET
  1

  9
$XEDIT
290
     1
  9
$CEPSNTYPE
380
     0
  9
$PSTYLEMODE
290
     1
  9
$FINGERPRINTGUID
  2
{93FBEBC5-ED6D-4AE3-B47D-202F23EF48A0}
  9
$VERSIONGUID
  2
{FAEB1C32-E019-11D5-929B-00C0DF256EC4}
  9
$EXTNAMES
290
     1
  9
$PSVPSCALE
 40
0.0
  9
$OLESTARTUP
290
     0
  9
$SORTENTS
280
   127
  9
$INDEXCTL
280
     0
  9
$HIDETEXT
280
     1
  9
$XCLIPFRAME
290
     0
  9
$HALOGAP
280
     0
  9
$OBSCOLOR
 70
   257
  9
$OBSLTYPE
280
     0
  9
$INTERSECTIONDISPLAY
280
     0
  9
$INTERSECTIONCOLOR
 70
   257
  9
$DIMASSOC
280
     2
  9
$PROJECTNAME
  1

  0
ENDSEC
  0
SECTION
  2
CLASSES
  0
CLASS
  1
ACDBDICTIONARYWDFLT
  2
AcDbDictionaryWithDefault
  3
ObjectDBX Classes
 90
        0
 91
        3
280
     0
281
     0
  0
CLASS
  1

  2
exOdDbPolyline
  3

 90
        0
 91
        3
280
     0
281
     1
  0
ENDSEC
  0
SECTION
  2
TABLES
  0
TABLE
  2
VPORT
  5
8
330
0
100
AcDbSymbolTable
 70
     1
  0
VPORT
  5
29
330
8
100
AcDbSymbolTableRecord
100
AcDbViewportTableRecord
  2
*Active
 70
     0
 10
0.0
 20
0.0
 11
1.0
 21
1.0
 12
4.55171793872999
 22
9.54472353513997
 13
0.0
 23
0.0
 14
0.5
 24
0.5
 15
0.5
 25
0.5
 16
0.0
 26
0.0
 36
1.0
 17
0.0
 27
0.0
 37
0.0
 40
121.484122562674
 41
1.60267857142857
 42
50.0
 43
0.0
 44
0.0
 50
0.0
 51
0.0
 71
     0
 72
   100
 73
     1
 74
     3
 75
     0
 76
     0
 77
     0
 78
     0
281
     0
 65
     1
110
0.0
120
0.0
130
0.0
111
1.0
121
0.0
131
0.0
112
0.0
122
1.0
132
0.0
 79
     0
146
0.0
  0
ENDTAB
  0
TABLE
  2
LTYPE
  5
5
330
0
100
AcDbSymbolTable
 70
     8
  0
LTYPE
  5
14
330
5
100
AcDbSymbolTableRecord
100
AcDbLinetypeTableRecord
  2
ByBlock
 70
     0
  3

 72
    65
 73
     0
 40
0.0
  0
LTYPE
  5
15
330
5
100
AcDbSymbolTableRecord
100
AcDbLinetypeTableRecord
  2
ByLayer
 70
     0
  3

 72
    65
 73
     0
 40
0.0
  0
LTYPE
  5
16
330
5
100
AcDbSymbolTableRecord
100
AcDbLinetypeTableRecord
  2
Continuous
 70
     0
  3
Solid line
 72
    65
 73
     0
 40
0.0
  0
LTYPE
  5
2A
330
5
100
AcDbSymbolTableRecord
100
AcDbLinetypeTableRecord
  2
DASHED
 70
     0
  3
Dashed
 72
    65
 73
     2
 40
15.0
 49
7.0
 74
     0
 49
-8.0
 74
     0
  0
LTYPE
  5
2B
330
5
100
AcDbSymbolTableRecord
100
AcDbLinetypeTableRecord
  2
DOTTED
 70
     0
  3
Dotted
 72
    65
 73
     2
 40
1.0
 49
0.0
 74
     0
 49
-1.0
 74
     0
  0
LTYPE
  5
2C
330
5
100
AcDbSymbolTableRecord
100
AcDbLinetypeTableRecord
  2
DOT_CENTER
 70
     0
  3
Dot_Center
 72
    65
 73
     4
 40
14.0
 49
12.0
 74
     0
 49
-1.0
 74
     0
 49
0.0
 74
     0
 49
-1.0
 74
     0
  0
LTYPE
  5
2D
330
5
100
AcDbSymbolTableRecord
100
AcDbLinetypeTableRecord
  2
LONG_DASHED
 70
     0
  3
Long_Dashed
 72
    65
 73
     2
 40
15.0
 49
10.0
 74
     0
 49
-5.0
 74
     0
  0
LTYPE
  5
2E
330
5
100
AcDbSymbolTableRecord
100
AcDbLinetypeTableRecord
  2
DASH_CENTER
 70
     0
  3
Dash_Center
 72
    65
 73
     4
 40
14.0
 49
11.0
 74
     0
 49
-1.0
 74
     0
 49
1.0
 74
     0
 49
-1.0
 74
     0
  0
LTYPE
  5
2F
330
5
100
AcDbSymbolTableRecord
100
AcDbLinetypeTableRecord
  2
PHANTOM
 70
     0
  3
Phantom
 72
    65
 73
     6
 40
13.0
 49
10.0
 74
     0
 49
-1.0
 74
     0
 49
0.0
 74
     0
 49
-1.0
 74
     0
 49
0.0
 74
     0
 49
-1.0
 74
     0
  0
LTYPE
  5
30
330
5
100
AcDbSymbolTableRecord
100
AcDbLinetypeTableRecord
  2
CENTER_DASH_DASH
 70
     0
  3
Center_Dash_Dash
 72
    65
 73
     6
 40
14.0
 49
9.0
 74
     0
 49
-1.0
 74
     0
 49
1.0
 74
     0
 49
-1.0
 74
     0
 49
1.0
 74
     0
 49
-1.0
 74
     0
  0
ENDTAB
  0
TABLE
  2
LAYER
  5
2
330
0
100
AcDbSymbolTable
 70
     5
  0
LAYER
  5
10
330
2
100
AcDbSymbolTableRecord
100
AcDbLayerTableRecord
  2
0
 70
     0
 62
     7
  6
Continuous
370
    -3
390
F
  0
LAYER
  5
31
330
2
100
AcDbSymbolTableRecord
100
AcDbLayerTableRecord
  2
01TNR-01
 70
     0
 62
     7
  6
Continuous
370
    -3
390
F
  0
LAYER
  5
32
330
2
100
AcDbSymbolTableRecord
100
AcDbLayerTableRecord
  2
1
 70
     0
 62
     7
  6
Continuous
370
    -3
390
F
  0
LAYER
  5
33
330
2
100
AcDbSymbolTableRecord
100
AcDbLayerTableRecord
  2
10TNR-01
 70
     0
 62
     7
  6
Continuous
370
    -3
390
F
  0
LAYER
  5
34
330
2
100
AcDbSymbolTableRecord
100
AcDbLayerTableRecord
  2
MO_
 70
     0
 62
     7
  6
Continuous
370
    -3
390
F
  0
ENDTAB
  0
TABLE
  2
STYLE
  5
3
330
0
100
AcDbSymbolTable
 70
     1
  0
STYLE
  5
11
330
3
100
AcDbSymbolTableRecord
100
AcDbTextStyleTableRecord
  2
Standard
 70
     0
 40
0.0
 41
1.0
 50
0.0
 71
     0
 42
0.2
  3
txt
  4

  0
ENDTAB
  0
TABLE
  2
VIEW
  5
6
330
0
100
AcDbSymbolTable
 70
     0
  0
ENDTAB
  0
TABLE
  2
UCS
  5
7
330
0
100
AcDbSymbolTable
 70
     0
  0
ENDTAB
  0
TABLE
  2
APPID
  5
9
330
0
100
AcDbSymbolTable
 70
     1
  0
APPID
  5
12
330
9
100
AcDbSymbolTableRecord
100
AcDbRegAppTableRecord
  2
ACAD
 70
     0
  0
ENDTAB
  0
TABLE
  2
DIMSTYLE
  5
A
330
0
100
AcDbSymbolTable
 70
     1
100
AcDbDimStyleTable
  0
DIMSTYLE
105
27
330
A
100
AcDbSymbolTableRecord
100
AcDbDimStyleTableRecord
  2
Standard
 70
     0
340
11
  0
ENDTAB
  0
TABLE
  2
BLOCK_RECORD
  5
1
330
0
100
AcDbSymbolTable
 70
     1
  0
BLOCK_RECORD
  5
1F
330
1
100
AcDbSymbolTableRecord
100
AcDbBlockTableRecord
  2
*Model_Space
340
22
  0
BLOCK_RECORD
  5
1B
330
1
100
AcDbSymbolTableRecord
100
AcDbBlockTableRecord
  2
*Paper_Space
340
1E
  0
BLOCK_RECORD
  5
23
330
1
100
AcDbSymbolTableRecord
100
AcDbBlockTableRecord
  2
*Paper_Space0
340
26
  0
ENDTAB
  0
ENDSEC
  0
SECTION
  2
BLOCKS
  0
BLOCK
  5
20
330
1F
100
AcDbEntity
  8
0
100
AcDbBlockBegin
  2
*Model_Space
 70
     0
 71
     0
 10
0.0
 20
0.0
 30
0.0
  3
*Model_Space
  1

  0
ENDBLK
  5
21
330
1F
100
AcDbEntity
  8
0
100
AcDbBlockEnd
  0
BLOCK
  5
1C
330
1B
100
AcDbEntity
 67
     1
  8
0
100
AcDbBlockBegin
  2
*Paper_Space
 70
     0
 71
     0
 10
0.0
 20
0.0
 30
0.0
  3
*Paper_Space
  1

  0
ENDBLK
  5
1D
330
1B
100
AcDbEntity
 67
     1
  8
0
100
AcDbBlockEnd
  0
BLOCK
  5
24
330
23
100
AcDbEntity
  8
0
100
AcDbBlockBegin
  2
*Paper_Space0
 70
     0
 71
     0
 10
0.0
 20
0.0
 30
0.0
  3
*Paper_Space0
  1

  0
ENDBLK
  5
25
330
23
100
AcDbEntity
  8
0
100
AcDbBlockEnd
  0
ENDSEC
  0
SECTION
  2
ENTITIES
  0
LINE
  5
35
330
1F
100
AcDbEntity
  8
1
  6
Continuous
 62
     7
100
AcDbLine
 10
-23.94828206126979
 20
-18.06497935946542
 30
0.0
 11
-23.94828206126979
 21
-22.56497935946542
 31
0.0
  0
LINE
  5
36
330
1F
100
AcDbEntity
  8
01TNR-01
  6
Continuous
 62
     7
100
AcDbLine
 10
-48.44828206126984
 20
-5.5649793594653
 30
0.0
 11
-34.44828206126988
 21
-5.5649793594653
 31
0.0
  0
LINE
  5
37
330
1F
100
AcDbEntity
  8
01TNR-01
  6
Continuous
 62
     7
100
AcDbLine
 10
-50.44828206127004
 20
4.4350206405347
 30
0.0
 11
-75.44828206126984
 21
4.4350206405347
 31
0.0
  0
LINE
  5
38
102
{ACAD_REACTORS
330
1B7
330
1B7
102
}
330
1F
100
AcDbEntity
  8
10TNR-01
  6
Continuous
 62
     7
100
AcDbLine
 10
-45.44828206127004
 20
5.1850206405349
 30
0.0
 11
-72.69828206126984
 21
5.1850206405349
 31
0.0
  0
LINE
  5
39
102
{ACAD_REACTORS
330
1B7
330
1B7
102
}
330
1F
100
AcDbEntity
  8
10TNR-01
  6
Continuous
 62
     7
100
AcDbLine
 10
-50.44828206127004
 20
7.18502064053479
 30
0.0
 11
-32.69828206126988
 21
7.18502064053479
 31
0.0
  0
LINE
  5
3A
102
{ACAD_REACTORS
330
1B6
330
1B6
102
}
330
1F
100
AcDbEntity
  8
10TNR-01
  6
Continuous
 62
     7
100
AcDbLine
 10
58.34726258689075
 20
-20.0311012986206
 30
0.0
 11
14.34726258689064
 21
-20.0311012986206
 31
0.0
  0
LINE
  5
3B
330
1F
100
AcDbEntity
  8
01TNR-01
  6
Continuous
 62
     7
100
AcDbLine
 10
-19.44828206126988
 20
-8.5649793594653
 30
0.0
 11
-83.94828206126984
 21
-8.5649793594653
 31
0.0
  0
LINE
  5
3C
330
1F
100
AcDbEntity
  8
01TNR-01
  6
Continuous
 62
     7
100
AcDbLine
 10
82.95071793872985
 20
21.93502064053459
 30
0.0
 11
65.03865660776334
 21
21.93502064053459
 31
0.0
  0
LINE
  5
3D
330
1F
100
AcDbEntity
  8
01TNR-01
  6
Continuous
 62
     7
100
AcDbLine
 10
83.45071793872985
 20
23.93502064053459
 30
0.0
 11
83.45071793872985
 21
22.43502064053459
 31
0.0
  0
LINE
  5
3E
330
1F
100
AcDbEntity
  8
01TNR-01
  6
Continuous
 62
     7
100
AcDbLine
 10
89.14658825074123
 20
24.93502064053459
 30
0.0
 11
84.45071793872985
 21
24.93502064053459
 31
0.0
  0
LINE
  5
3F
330
1F
100
AcDbEntity
  8
01TNR-01
  6
Continuous
 62
     7
100
AcDbLine
 10
89.31338935131255
 20
30.46815759073479
 30
0.0
 11
89.64548898488725
 21
25.46815759073459
 31
0.0
  0
LINE
  5
40
330
1F
100
AcDbEntity
  8
01TNR-01
  6
Continuous
 62
     7
100
AcDbLine
 10
63.85347142257844
 20
30.9350206405347
 30
0.0
 11
88.81448861716474
 21
30.9350206405347
 31
0.0
  0
LINE
  5
41
330
1F
100
AcDbEntity
  8
01TNR-01
  6
Continuous
 62
     7
100
AcDbLine
 10
64.54405487658674
 20
22.36174630998991
 30
0.0
 11
63.35886969140144
 21
30.36174630998991
 31
0.0
  0
LINE
  5
42
330
1F
100
AcDbEntity
  8
01TNR-01
  6
Continuous
 62
     7
100
AcDbLine
 10
46.05171793873005
 20
30.9350206405347
 30
0.0
 11
46.05171793873005
 21
20.4350206405347
 31
0.0
  0
LINE
  5
43
330
1F
100
AcDbEntity
  8
01TNR-01
  6
Continuous
 62
     7
100
AcDbLine
 10
60.82845641707134
 20
30.9350206405347
 30
0.0
 11
46.05171793873005
 21
30.9350206405347
 31
0.0
  0
LINE
  5
44
330
1F
100
AcDbEntity
  8
01TNR-01
  6
Continuous
 62
     7
100
AcDbLine
 10
62.72697356187364
 20
21.00811570501969
 30
0.0
 11
61.32308467298473
 21
30.50811570501969
 31
0.0
  0
LINE
  5
45
330
1F
100
AcDbEntity
  8
01TNR-01
  6
Continuous
 62
     7
100
AcDbLine
 10
46.05171793873005
 20
20.4350206405347
 30
0.0
 11
62.23234530596024
 21
20.4350206405347
 31
0.0
  0
LINE
  5
46
330
1F
100
AcDbEntity
  8
01TNR-01
  6
Continuous
 62
     7
100
AcDbLine
 10
17.55171793873005
 20
30.9350206405347
 30
0.0
 11
17.55171793873005
 21
20.4350206405347
 31
0.0
  0
LINE
  5
47
330
1F
100
AcDbEntity
  8
01TNR-01
  6
Continuous
 62
     7
100
AcDbLine
 10
44.55171793873005
 20
30.9350206405347
 30
0.0
 11
17.55171793873005
 21
30.9350206405347
 31
0.0
  0
LINE
  5
48
330
1F
100
AcDbEntity
  8
01TNR-01
  6
Continuous
 62
     7
100
AcDbLine
 10
44.55171793873005
 20
20.4350206405347
 30
0.0
 11
44.55171793873005
 21
30.9350206405347
 31
0.0
  0
LINE
  5
49
330
1F
100
AcDbEntity
  8
01TNR-01
  6
Continuous
 62
     7
100
AcDbLine
 10
17.55171793873005
 20
20.4350206405347
 30
0.0
 11
44.55171793873005
 21
20.4350206405347
 31
0.0
  0
LINE
  5
4A
330
1F
100
AcDbEntity
  8
01TNR-01
  6
Continuous
 62
     7
100
AcDbLine
 10
8.15171793872994
 20
30.4350206405347
 30
0.0
 11
8.15171793873005
 21
20.9350206405347
 31
0.0
  0
LINE
  5
4B
330
1F
100
AcDbEntity
  8
01TNR-01
  6
Continuous
 62
     7
100
AcDbLine
 10
16.05171793873005
 20
30.9350206405347
 30
0.0
 11
8.65171793872994
 21
30.9350206405347
 31
0.0
  0
LINE
  5
4C
330
1F
100
AcDbEntity
  8
01TNR-01
  6
Continuous
 62
     7
100
AcDbLine
 10
16.05171793873005
 20
20.4350206405347
 30
0.0
 11
16.05171793873005
 21
30.9350206405347
 31
0.0
  0
LINE
  5
4D
330
1F
100
AcDbEntity
  8
01TNR-01
  6
Continuous
 62
     7
100
AcDbLine
 10
8.65171793873005
 20
20.4350206405347
 30
0.0
 11
16.05171793873005
 21
20.4350206405347
 31
0.0
  0
LINE
  5
4E
330
1F
100
AcDbEntity
  8
01TNR-01
  6
Continuous
 62
     7
100
AcDbLine
 10
-0.44828206126996
 20
30.4350206405347
 30
0.0
 11
-0.44828206126996
 21
20.9350206405347
 31
0.0
  0
LINE
  5
4F
330
1F
100
AcDbEntity
  8
01TNR-01
  6
Continuous
 62
     7
100
AcDbLine
 10
6.15171793872994
 20
30.9350206405347
 30
0.0
 11
0.05171793873004
 21
30.9350206405347
 31
0.0
  0
LINE
  5
50
330
1F
100
AcDbEntity
  8
01TNR-01
  6
Continuous
 62
     7
100
AcDbLine
 10
6.65171793873005
 20
20.9350206405347
 30
0.0
 11
6.65171793872994
 21
30.4350206405347
 31
0.0
  0
LINE
  5
51
330
1F
100
AcDbEntity
  8
01TNR-01
  6
Continuous
 62
     7
100
AcDbLine
 10
0.05171793873004
 20
20.4350206405347
 30
0.0
 11
6.15171793873005
 21
20.4350206405347
 31
0.0
  0
LINE
  5
52
102
{ACAD_REACTORS
330
1B6
330
1B6
102
}
330
1F
100
AcDbEntity
  8
10TNR-01
  6
Continuous
 62
     7
100
AcDbLine
 10
13.34726258689064
 20
-19.0311012986206
 30
0.0
 11
13.34726258689064
 21
14.9688987013794
 31
0.0
  0
LINE
  5
53
102
{ACAD_REACTORS
330
1B6
330
1B6
102
}
330
1F
100
AcDbEntity
  8
10TNR-01
  6
Continuous
 62
     7
100
AcDbLine
 10
59.34726258689075
 20
14.9688987013794
 30
0.0
 11
59.34726258689075
 21
-19.0311012986206
 31
0.0
  0
LINE
  5
54
102
{ACAD_REACTORS
330
1B6
330
1B6
102
}
330
1F
100
AcDbEntity
  8
10TNR-01
  6
Continuous
 62
     7
100
AcDbLine
 10
14.34726258689064
 20
15.9688987013794
 30
0.0
 11
58.34726258689075
 21
15.9688987013794
 31
0.0
  0
LINE
  5
55
330
1F
100
AcDbEntity
  8
01TNR-01
  6
Continuous
 62
     7
100
AcDbLine
 10
-31.17927170274319
 20
48.43502064053467
 30
0.0
 11
-48.44828206126984
 21
48.43502064053457
 31
0.0
  0
LINE
  5
56
330
1F
100
AcDbEntity
  8
01TNR-01
  6
Continuous
 62
     7
100
AcDbLine
 10
-29.27726256415897
 20
38.50829497107938
 30
0.0
 11
-30.68466997156648
 21
48.00829497107938
 31
0.0
  0
LINE
  5
57
330
1F
100
AcDbEntity
  8
01TNR-01
  6
Continuous
 62
     7
100
AcDbLine
 10
-48.44828206126984
 20
37.93502064053457
 30
0.0
 11
-29.77186429533589
 21
37.93502064053457
 31
0.0
  0
LINE
  5
58
330
1F
100
AcDbEntity
  8
01TNR-01
  6
Continuous
 62
     7
100
AcDbLine
 10
-48.94828206126984
 20
47.93502064053457
 30
0.0
 11
-48.94828206126984
 21
38.43502064053457
 31
0.0
  0
LINE
  5
59
330
1F
100
AcDbEntity
  8
01TNR-01
  6
Continuous
 62
     7
100
AcDbLine
 10
-75.94828206126992
 20
42.46639367393767
 30
0.0
 11
-75.94828206126992
 21
38.43502064053467
 31
0.0
  0
LINE
  5
5A
330
1F
100
AcDbEntity
  8
01TNR-01
  6
Continuous
 62
     7
100
AcDbLine
 10
-51.44828206126984
 20
48.43502064053457
 30
0.0
 11
-74.13880704195883
 21
48.43502064053457
 31
0.0
  0
LINE
  5
5B
330
1F
100
AcDbEntity
  8
01TNR-01
  6
Continuous
 62
     7
100
AcDbLine
 10
-50.94828206126984
 20
38.43502064053457
 30
0.0
 11
-50.94828206126984
 21
47.93502064053457
 31
0.0
  0
LINE
  5
5C
330
1F
100
AcDbEntity
  8
01TNR-01
  6
Continuous
 62
     7
100
AcDbLine
 10
-75.44828206126992
 20
37.93502064053467
 30
0.0
 11
-51.44828206126984
 21
37.93502064053457
 31
0.0
  0
LINE
  5
5D
330
1F
100
AcDbEntity
  8
01TNR-01
  6
Continuous
 62
     7
100
AcDbLine
 10
-21.94828206126988
 20
-2.0649793594653
 30
0.0
 11
-21.94828206126988
 21
-5.0649793594653
 31
0.0
  0
LINE
  5
5E
330
1F
100
AcDbEntity
  8
01TNR-01
  6
Continuous
 62
     7
100
AcDbLine
 10
-22.94828206126897
 20
-1.5649793594653
 30
0.0
 11
-22.44828206126988
 21
-1.5649793594653
 31
0.0
  0
LINE
  5
5F
330
1F
100
AcDbEntity
  8
01TNR-01
  6
Continuous
 62
     7
100
AcDbLine
 10
-31.44828206126988
 20
2.4350206405347
 30
0.0
 11
-28.60513631075889
 21
2.4350206405347
 31
0.0
  0
LINE
  5
60
330
1F
100
AcDbEntity
  8
01TNR-01
  6
Continuous
 62
     7
100
AcDbLine
 10
-31.94828206126988
 20
-5.0649793594653
 30
0.0
 11
-31.94828206126988
 21
1.9350206405347
 31
0.0
  0
LINE
  5
61
330
1F
100
AcDbEntity
  8
01TNR-01
  6
Continuous
 62
     7
100
AcDbLine
 10
-27.41273142758578
 20
-5.5649793594653
 30
0.0
 11
-31.44828206126988
 21
-5.5649793594653
 31
0.0
  0
LINE
  5
62
330
1F
100
AcDbEntity
  8
01TNR-01
  6
Continuous
 62
     7
100
AcDbLine
 10
-26.91273142758578
 20
-3.5649793594653
 30
0.0
 11
-26.91273142758578
 21
-5.0649793594653
 31
0.0
  0
LINE
  5
63
330
1F
100
AcDbEntity
  8
01TNR-01
  6
Continuous
 62
     7
100
AcDbLine
 10
-24.91273142758578
 20
-3.5649793594653
 30
0.0
 11
-26.91273142758578
 21
-3.5649793594653
 31
0.0
  0
LINE
  5
64
330
1F
100
AcDbEntity
  8
01TNR-01
  6
Continuous
 62
     7
100
AcDbLine
 10
-24.91273142758578
 20
-5.0649793594653
 30
0.0
 11
-24.91273142758578
 21
-3.5649793594653
 31
0.0
  0
LINE
  5
65
330
1F
100
AcDbEntity
  8
01TNR-01
  6
Continuous
 62
     7
100
AcDbLine
 10
-22.41273142758578
 20
-5.5649793594653
 30
0.0
 11
-24.41273142758578
 21
-5.5649793594653
 31
0.0
  0
LINE
  5
66
330
1F
100
AcDbEntity
  8
01TNR-01
  6
Continuous
 62
     7
100
AcDbLine
 10
-34.44828206126988
 20
2.4350206405347
 30
0.0
 11
-48.44828206126984
 21
2.4350206405347
 31
0.0
  0
LINE
  5
67
330
1F
100
AcDbEntity
  8
01TNR-01
  6
Continuous
 62
     7
100
AcDbLine
 10
-33.94828206126988
 20
-5.0649793594653
 30
0.0
 11
-33.94828206126988
 21
1.9350206405347
 31
0.0
  0
LINE
  5
68
330
1F
100
AcDbEntity
  8
01TNR-01
  6
Continuous
 62
     7
100
AcDbLine
 10
-74.13880704195874
 20
-5.5649793594653
 30
0.0
 11
-51.44828206126984
 21
-5.5649793594653
 31
0.0
  0
LINE
  5
69
330
1F
100
AcDbEntity
  8
01TNR-01
  6
Continuous
 62
     7
100
AcDbLine
 10
-75.94828206126984
 20
1.9350206405347
 30
0.0
 11
-75.94828206126984
 21
0.20993785817009
 31
0.0
  0
LINE
  5
6A
330
1F
100
AcDbEntity
  8
01TNR-01
  6
Continuous
 62
     7
100
AcDbLine
 10
-51.44828206126984
 20
2.4350206405347
 30
0.0
 11
-75.44828206126984
 21
2.4350206405347
 31
0.0
  0
LINE
  5
6B
330
1F
100
AcDbEntity
  8
01TNR-01
  6
Continuous
 62
     7
100
AcDbLine
 10
-50.94828206126984
 20
-5.0649793594653
 30
0.0
 11
-50.94828206126984
 21
1.9350206405347
 31
0.0
  0
LINE
  5
6C
102
{ACAD_REACTORS
330
1B7
330
1B7
102
}
330
1F
100
AcDbEntity
  8
10TNR-01
  6
Continuous
 62
     7
100
AcDbLine
 10
-73.19828206126992
 20
32.68502064053487
 30
0.0
 11
-73.19828206126992
 21
7.68502064053479
 31
0.0
  0
LINE
  5
6D
102
{ACAD_REACTORS
330
1B7
330
1B7
102
}
330
1F
100
AcDbEntity
  8
10TNR-01
  6
Continuous
 62
     7
100
AcDbLine
 10
-32.69828206126988
 20
33.18502064053467
 30
0.0
 11
-72.69828206126992
 21
33.18502064053487
 31
0.0
  0
LINE
  5
6E
102
{ACAD_REACTORS
330
1B7
330
1B7
102
}
330
1F
100
AcDbEntity
  8
10TNR-01
  6
Continuous
 62
     7
100
AcDbLine
 10
-32.19828206126999
 20
20.6850206405347
 30
0.0
 11
-32.19828206126988
 21
32.68502064053467
 31
0.0
  0
LINE
  5
6F
102
{ACAD_REACTORS
330
1B7
330
1B7
102
}
330
1F
100
AcDbEntity
  8
10TNR-01
  6
Continuous
 62
     7
100
AcDbLine
 10
-30.19828206126988
 20
20.6850206405347
 30
0.0
 11
-32.19828206126999
 21
20.6850206405347
 31
0.0
  0
LINE
  5
70
102
{ACAD_REACTORS
330
1B7
330
1B7
102
}
330
1F
100
AcDbEntity
  8
10TNR-01
  6
Continuous
 62
     7
100
AcDbLine
 10
-30.19828206126988
 20
32.68502064053467
 30
0.0
 11
-30.19828206126988
 21
20.6850206405347
 31
0.0
  0
LINE
  5
71
102
{ACAD_REACTORS
330
1B7
330
1B7
102
}
330
1F
100
AcDbEntity
  8
10TNR-01
  6
Continuous
 62
     7
100
AcDbLine
 10
-72.69828206126992
 20
35.18502064053467
 30
0.0
 11
-32.69828206126988
 21
35.18502064053467
 31
0.0
  0
LINE
  5
72
102
{ACAD_REACTORS
330
1B7
330
1B7
102
}
330
1F
100
AcDbEntity
  8
10TNR-01
  6
Continuous
 62
     7
100
AcDbLine
 10
-75.19828206126992
 20
7.6850206405349
 30
0.0
 11
-75.19828206126992
 21
32.68502064053467
 31
0.0
  0
LINE
  5
73
102
{ACAD_REACTORS
330
1B7
330
1B7
102
}
330
1F
100
AcDbEntity
  8
10TNR-01
  6
Continuous
 62
     7
100
AcDbLine
 10
-32.69828206126988
 20
5.1850206405349
 30
0.0
 11
-45.44828206127004
 21
5.1850206405349
 31
0.0
  0
LINE
  5
74
102
{ACAD_REACTORS
330
1B7
330
1B7
102
}
330
1F
100
AcDbEntity
  8
10TNR-01
  6
Continuous
 62
     7
100
AcDbLine
 10
-30.19828206126988
 20
19.6850206405347
 30
0.0
 11
-30.19828206126988
 21
7.68502064053479
 31
0.0
  0
LINE
  5
75
102
{ACAD_REACTORS
330
1B7
330
1B7
102
}
330
1F
100
AcDbEntity
  8
10TNR-01
  6
Continuous
 62
     7
100
AcDbLine
 10
-32.19828206126988
 20
19.6850206405347
 30
0.0
 11
-30.19828206126988
 21
19.6850206405347
 31
0.0
  0
LINE
  5
76
102
{ACAD_REACTORS
330
1B7
330
1B7
102
}
330
1F
100
AcDbEntity
  8
10TNR-01
  6
Continuous
 62
     7
100
AcDbLine
 10
-32.19828206126988
 20
7.68502064053479
 30
0.0
 11
-32.19828206126988
 21
19.6850206405347
 31
0.0
  0
LINE
  5
77
102
{ACAD_REACTORS
330
1B7
330
1B7
102
}
330
1F
100
AcDbEntity
  8
10TNR-01
  6
Continuous
 62
     7
100
AcDbLine
 10
-72.69828206126992
 20
7.18502064053479
 30
0.0
 11
-50.44828206127004
 21
7.18502064053479
 31
0.0
  0
LINE
  5
78
330
1F
100
AcDbEntity
  8
01TNR-01
  6
Continuous
 62
     7
100
AcDbLine
 10
-29.84373249482238
 20
35.50829497107938
 30
0.0
 11
-26.1582499518475
 21
10.63128780599851
 31
0.0
  0
LINE
  5
79
330
1F
100
AcDbEntity
  8
01TNR-01
  6
Continuous
 62
     7
100
AcDbLine
 10
-75.44828206126992
 20
35.93502064053457
 30
0.0
 11
-30.33833422599938
 21
35.93502064053467
 31
0.0
  0
LINE
  5
7A
330
1F
100
AcDbEntity
  8
01TNR-01
  6
Continuous
 62
     7
100
AcDbLine
 10
-75.94828206126984
 20
4.9350206405347
 30
0.0
 11
-75.94828206126992
 21
35.43502064053457
 31
0.0
  0
LINE
  5
7B
330
1F
100
AcDbEntity
  8
01TNR-01
  6
Continuous
 62
     7
100
AcDbLine
 10
-28.94828206126988
 20
4.4350206405347
 30
0.0
 11
-50.44828206127004
 21
4.4350206405347
 31
0.0
  0
LINE
  5
7C
330
1F
100
AcDbEntity
  8
01TNR-01
  6
Continuous
 62
     7
100
AcDbLine
 10
-28.44828206126988
 20
6.63502064053461
 30
0.0
 11
-28.44828206126988
 21
4.9350206405347
 31
0.0
  0
LINE
  5
7D
330
1F
100
AcDbEntity
  8
01TNR-01
  6
Continuous
 62
     7
100
AcDbLine
 10
-2.68724437001556
 20
47.96815759073458
 30
0.0
 11
-2.35514473644086
 21
42.96815759073458
 31
0.0
  0
LINE
  5
7E
330
1F
100
AcDbEntity
  8
01TNR-01
  6
Continuous
 62
     7
100
AcDbLine
 10
-28.14652857741967
 20
48.43502064053457
 30
0.0
 11
-3.18614510416145
 21
48.43502064053457
 31
0.0
  0
LINE
  5
7F
330
1F
100
AcDbEntity
  8
01TNR-01
  6
Continuous
 62
     7
100
AcDbLine
 10
-27.45594512341148
 20
39.86174630998978
 30
0.0
 11
-28.64113030859667
 21
47.86174630998968
 31
0.0
  0
LINE
  5
80
330
1F
100
AcDbEntity
  8
01TNR-01
  6
Continuous
 62
     7
100
AcDbLine
 10
-9.04717464019826
 20
39.43502064053457
 30
0.0
 11
-26.9613433922346
 21
39.43502064053457
 31
0.0
  0
LINE
  5
81
330
1F
100
AcDbEntity
  8
01TNR-01
  6
Continuous
 62
     7
100
AcDbLine
 10
-8.54717464019826
 20
40.93502064053457
 30
0.0
 11
-8.54717464019826
 21
39.93502064053457
 31
0.0
  0
LINE
  5
82
330
1F
100
AcDbEntity
  8
01TNR-01
  6
Continuous
 62
     7
100
AcDbLine
 10
-2.85404547058685
 20
42.43502064053467
 30
0.0
 11
-7.04717464019826
 21
42.43502064053457
 31
0.0
  0
LINE
  5
83
330
1F
100
AcDbEntity
  8
01TNR-01
  6
Continuous
 62
     7
100
AcDbLine
 10
-18.9482820612694
 20
7.01070693894789
 30
0.0
 11
-21.18851723006847
 21
6.1953280197487
 31
0.0
  0
LINE
  5
84
330
1F
100
AcDbEntity
  8
01TNR-01
  6
Continuous
 62
     7
100
AcDbLine
 10
-18.94828206126988
 20
9.43502064053459
 30
0.0
 11
-18.9482820612694
 21
7.01070693894789
 31
0.0
  0
LINE
  5
85
330
1F
100
AcDbEntity
  8
01TNR-01
  6
Continuous
 62
     7
100
AcDbLine
 10
-22.51689894779008
 20
9.43502064053459
 30
0.0
 11
-18.94828206126988
 21
9.43502064053459
 31
0.0
  0
LINE
  5
86
330
1F
100
AcDbEntity
  8
01TNR-01
  6
Continuous
 62
     7
100
AcDbLine
 10
-26.69349346991669
 20
34.71519764890039
 30
0.0
 11
-23.01150067896708
 21
9.8617463099898
 31
0.0
  0
LINE
  5
87
330
1F
100
AcDbEntity
  8
01TNR-01
  6
Continuous
 62
     7
100
AcDbLine
 10
-6.41430746505436
 20
36.43502064053457
 30
0.0
 11
-25.20968827638598
 21
36.43502064053457
 31
0.0
  0
LINE
  5
88
330
1F
100
AcDbEntity
  8
01TNR-01
  6
Continuous
 62
     7
100
AcDbLine
 10
-5.54828206127006
 20
37.93502064053457
 30
0.0
 11
-6.41430746505436
 21
36.43502064053457
 31
0.0
  0
LINE
  5
89
330
1F
100
AcDbEntity
  8
01TNR-01
  6
Continuous
 62
     7
100
AcDbLine
 10
-6.74717464019835
 20
37.93502064053457
 30
0.0
 11
-5.54828206127006
 21
37.93502064053457
 31
0.0
  0
LINE
  5
8A
330
1F
100
AcDbEntity
  8
01TNR-01
  6
Continuous
 62
     7
100
AcDbLine
 10
-7.04717464019826
 20
40.63502064053458
 30
0.0
 11
-7.04717464019826
 21
38.23502064053447
 31
0.0
  0
LINE
  5
8B
330
1F
100
AcDbEntity
  8
01TNR-01
  6
Continuous
 62
     7
100
AcDbLine
 10
-1.90658246431405
 20
40.93502064053477
 30
0.0
 11
-6.74717464019835
 21
40.93502064053457
 31
0.0
  0
LINE
  5
8C
330
1F
100
AcDbEntity
  8
01TNR-01
  6
Continuous
 62
     7
100
AcDbLine
 10
-1.44783419971065
 20
38.25490281065449
 30
0.0
 11
-1.60724202382646
 21
40.65490281065478
 31
0.0
  0
LINE
  5
8D
330
1F
100
AcDbEntity
  8
01TNR-01
  6
Continuous
 62
     7
100
AcDbLine
 10
-2.94828206126987
 20
37.93502064053457
 30
0.0
 11
-1.74717464019835
 21
37.93502064053457
 31
0.0
  0
LINE
  5
8E
330
1F
100
AcDbEntity
  8
01TNR-01
  6
Continuous
 62
     7
100
AcDbLine
 10
-2.08225665748536
 20
36.43502064053457
 30
0.0
 11
-2.94828206126987
 21
37.93502064053457
 31
0.0
  0
LINE
  5
8F
330
1F
100
AcDbEntity
  8
01TNR-01
  6
Continuous
 62
     7
100
AcDbLine
 10
0.55108421740204
 20
36.43502064053457
 30
0.0
 11
-2.08225665748536
 21
36.43502064053457
 31
0.0
  0
LINE
  5
90
330
1F
100
AcDbEntity
  8
01TNR-01
  6
Continuous
 62
     7
100
AcDbLine
 10
0.16661949186954
 20
50.26786301603448
 30
0.0
 11
1.04998495154794
 21
36.96815759073458
 31
0.0
  0
LINE
  5
91
330
1F
100
AcDbEntity
  8
01TNR-01
  6
Continuous
 62
     7
100
AcDbLine
 10
-83.94828206126992
 20
51.43502064053457
 30
0.0
 11
-1.08063234349567
 21
51.43502064053457
 31
0.0
  0
LINE
  5
92
330
1F
100
AcDbEntity
  8
01TNR-01
  6
Continuous
 62
     7
100
AcDbLine
 10
-83.94828206126992
 20
48.93502064053457
 30
0.0
 11
-83.94828206126992
 21
51.43502064053457
 31
0.0
  0
LINE
  5
93
330
1F
100
AcDbEntity
  8
01TNR-01
  6
Continuous
 62
     7
100
AcDbLine
 10
-81.13571626997363
 20
48.63502064053458
 30
0.0
 11
-83.94828206126992
 21
48.93502064053457
 31
0.0
  0
LINE
  5
94
330
1F
100
AcDbEntity
  8
01TNR-01
  6
Continuous
 62
     7
100
AcDbLine
 10
-83.94828206126992
 20
43.93502064053448
 30
0.0
 11
-81.13571626997363
 21
44.23502064053447
 31
0.0
  0
LINE
  5
95
330
1F
100
AcDbEntity
  8
01TNR-01
  6
Continuous
 62
     7
100
AcDbLine
 10
-83.94828206126992
 20
41.43502064053457
 30
0.0
 11
-83.94828206126992
 21
43.93502064053448
 31
0.0
  0
LINE
  5
96
330
1F
100
AcDbEntity
  8
01TNR-01
  6
Continuous
 62
     7
100
AcDbLine
 10
-78.94828206126992
 20
41.43502064053457
 30
0.0
 11
-83.94828206126992
 21
41.43502064053457
 31
0.0
  0
LINE
  5
97
330
1F
100
AcDbEntity
  8
01TNR-01
  6
Continuous
 62
     7
100
AcDbLine
 10
-78.94828206126992
 20
41.13502064053458
 30
0.0
 11
-78.94828206126992
 21
41.43502064053457
 31
0.0
  0
LINE
  5
98
330
1F
100
AcDbEntity
  8
01TNR-01
  6
Continuous
 62
     7
100
AcDbLine
 10
-78.94828206126992
 20
36.93502064053467
 30
0.0
 11
-78.94828206126992
 21
41.13502064053458
 31
0.0
  0
LINE
  5
99
330
1F
100
AcDbEntity
  8
01TNR-01
  6
Continuous
 62
     7
100
AcDbLine
 10
-83.74828206126982
 20
36.93502064053457
 30
0.0
 11
-78.94828206126992
 21
36.93502064053467
 31
0.0
  0
LINE
  5
9A
330
1F
100
AcDbEntity
  8
01TNR-01
  6
Continuous
 62
     7
100
AcDbLine
 10
-83.74828206126982
 20
33.93502064053457
 30
0.0
 11
-83.74828206126982
 21
36.93502064053457
 31
0.0
  0
LINE
  5
9B
330
1F
100
AcDbEntity
  8
01TNR-01
  6
Continuous
 62
     7
100
AcDbLine
 10
-82.86249562364303
 20
33.93502064053457
 30
0.0
 11
-83.74828206126982
 21
33.93502064053457
 31
0.0
  0
LINE
  5
9C
330
1F
100
AcDbEntity
  8
01TNR-01
  6
Continuous
 62
     7
100
AcDbLine
 10
-78.94828206126992
 20
33.93502064053457
 30
0.0
 11
-80.03406849889684
 21
33.93502064053457
 31
0.0
  0
LINE
  5
9D
330
1F
100
AcDbEntity
  8
01TNR-01
  6
Continuous
 62
     7
100
AcDbLine
 10
-78.94828206126984
 20
1.4350206405347
 30
0.0
 11
-78.94828206126992
 21
33.93502064053457
 31
0.0
  0
LINE
  5
9E
330
1F
100
AcDbEntity
  8
01TNR-01
  6
Continuous
 62
     7
100
AcDbLine
 10
-81.94828206126984
 20
1.4350206405347
 30
0.0
 11
-78.94828206126984
 21
1.4350206405347
 31
0.0
  0
LINE
  5
9F
330
1F
100
AcDbEntity
  8
01TNR-01
  6
Continuous
 62
     7
100
AcDbLine
 10
-81.94828206126984
 20
3.4350206405347
 30
0.0
 11
-81.94828206126984
 21
1.4350206405347
 31
0.0
  0
LINE
  5
A0
330
1F
100
AcDbEntity
  8
01TNR-01
  6
Continuous
 62
     7
100
AcDbLine
 10
-82.94828206126984
 20
3.4350206405347
 30
0.0
 11
-81.94828206126984
 21
3.4350206405347
 31
0.0
  0
LINE
  5
A1
330
1F
100
AcDbEntity
  8
01TNR-01
  6
Continuous
 62
     7
100
AcDbLine
 10
-83.94828206126984
 20
-1.0649793594653
 30
0.0
 11
-83.94828206126984
 21
2.4350206405347
 31
0.0
  0
LINE
  5
A2
330
1F
100
AcDbEntity
  8
01TNR-01
  6
Continuous
 62
     7
100
AcDbLine
 10
-81.13571626997354
 20
-1.3649793594652
 30
0.0
 11
-83.94828206126984
 21
-1.0649793594653
 31
0.0
  0
LINE
  5
A3
330
1F
100
AcDbEntity
  8
01TNR-01
  6
Continuous
 62
     7
100
AcDbLine
 10
-83.94828206126984
 20
-6.0649793594653
 30
0.0
 11
-81.13571626997374
 21
-5.76497935946541
 31
0.0
  0
LINE
  5
A4
330
1F
100
AcDbEntity
  8
01TNR-01
  6
Continuous
 62
     7
100
AcDbLine
 10
-83.94828206126984
 20
-8.5649793594653
 30
0.0
 11
-83.94828206126984
 21
-6.0649793594653
 31
0.0
  0
LINE
  5
A5
330
1F
100
AcDbEntity
  8
01TNR-01
  6
Continuous
 62
     7
100
AcDbLine
 10
-18.94828206126988
 20
0.8593343421216
 30
0.0
 11
-18.94828206126988
 21
-8.0649793594653
 31
0.0
  0
LINE
  5
A6
330
1F
100
AcDbEntity
  8
01TNR-01
  6
Continuous
 62
     7
100
AcDbLine
 10
-21.18851723006847
 20
1.67471326132059
 30
0.0
 11
-18.94828206126988
 21
0.8593343421216
 31
0.0
  0
LINE
  5
A7
330
1F
100
AcDbEntity
  8
01TNR-01
  6
Continuous
 62
     7
100
AcDbLine
 10
-25.44828206126988
 20
6.63502064053469
 30
0.0
 11
-25.44828206126988
 21
3.9350206405347
 31
0.0
  0
LINE
  5
A8
330
1F
100
AcDbEntity
  8
01TNR-01
  6
Continuous
 62
     7
100
AcDbLine
 10
10.65171793873005
 20
-5.5649793594653
 30
0.0
 11
8.15171793873005
 21
-6.2348523405465
 31
0.0
  0
LINE
  5
A9
330
1F
100
AcDbEntity
  8
01TNR-01
  6
Continuous
 62
     7
100
AcDbLine
 10
8.15171793873005
 20
-3.8951063783843
 30
0.0
 11
10.65171793873005
 21
-4.56497935946212
 31
0.0
  0
LINE
  5
AA
330
1F
100
AcDbEntity
  8
01TNR-01
  6
Continuous
 62
     7
100
AcDbLine
 10
8.15171793872994
 20
2.2311730632413
 30
0.0
 11
8.15171793873005
 21
-3.8951063783843
 31
0.0
  0
LINE
  5
AB
330
1F
100
AcDbEntity
  8
01TNR-01
  6
Continuous
 62
     7
100
AcDbLine
 10
11.15171793873005
 20
3.03502064053461
 30
0.0
 11
8.15171793872994
 21
2.2311730632413
 31
0.0
  0
LINE
  5
AC
330
1F
100
AcDbEntity
  8
01TNR-01
  6
Continuous
 62
     7
100
AcDbLine
 10
11.15171793873005
 20
5.03502064053461
 30
0.0
 11
11.15171793873005
 21
3.03502064053461
 31
0.0
  0
LINE
  5
AD
330
1F
100
AcDbEntity
  8
01TNR-01
  6
Continuous
 62
     7
100
AcDbLine
 10
9.65171793873005
 20
5.03502064053461
 30
0.0
 11
11.15171793873005
 21
5.03502064053461
 31
0.0
  0
LINE
  5
AE
330
1F
100
AcDbEntity
  8
01TNR-01
  6
Continuous
 62
     7
100
AcDbLine
 10
11.15171793873005
 20
7.03502064053461
 30
0.0
 11
9.65171793873005
 21
7.03502064053461
 31
0.0
  0
LINE
  5
AF
330
1F
100
AcDbEntity
  8
01TNR-01
  6
Continuous
 62
     7
100
AcDbLine
 10
11.15171793873005
 20
9.03502064053461
 30
0.0
 11
11.15171793873005
 21
7.03502064053461
 31
0.0
  0
LINE
  5
B0
330
1F
100
AcDbEntity
  8
01TNR-01
  6
Continuous
 62
     7
100
AcDbLine
 10
8.15171793873005
 20
9.83886821782801
 30
0.0
 11
11.15171793873005
 21
9.03502064053461
 31
0.0
  0
LINE
  5
B1
330
1F
100
AcDbEntity
  8
01TNR-01
  6
Continuous
 62
     7
100
AcDbLine
 10
8.15171793873005
 20
17.9350206405347
 30
0.0
 11
8.15171793873005
 21
9.83886821782801
 31
0.0
  0
LINE
  5
B2
330
1F
100
AcDbEntity
  8
01TNR-01
  6
Continuous
 62
     7
100
AcDbLine
 10
61.66166577400064
 20
18.4350206405347
 30
0.0
 11
8.65171793873005
 21
18.4350206405347
 31
0.0
  0
LINE
  5
B3
330
1F
100
AcDbEntity
  8
01TNR-01
  6
Continuous
 62
     7
100
AcDbLine
 10
63.87082666525835
 20
6.43502064053459
 30
0.0
 11
62.15626750517764
 21
18.00829497107941
 31
0.0
  0
LINE
  5
B4
330
1F
100
AcDbEntity
  8
01TNR-01
  6
Continuous
 62
     7
100
AcDbLine
 10
63.55171793873005
 20
6.43502064053459
 30
0.0
 11
63.87082666525835
 21
6.43502064053459
 31
0.0
  0
LINE
  5
B5
330
1F
100
AcDbEntity
  8
01TNR-01
  6
Continuous
 62
     7
100
AcDbLine
 10
64.31527110970264
 20
3.43502064053459
 30
0.0
 11
63.55171793873005
 21
3.43502064053459
 31
0.0
  0
LINE
  5
B6
330
1F
100
AcDbEntity
  8
01TNR-01
  6
Continuous
 62
     7
100
AcDbLine
 10
65.84175004815175
 20
-6.86871219399621
 30
0.0
 11
64.31527110970264
 21
3.43502064053459
 31
0.0
  0
LINE
  5
B7
330
1F
100
AcDbEntity
  8
01TNR-01
  6
Continuous
 62
     7
100
AcDbLine
 10
70.05171793872823
 20
-22.06497935946542
 30
0.0
 11
70.05171793872823
 21
-19.5441097310154
 31
0.0
  0
LINE
  5
B8
330
1F
100
AcDbEntity
  8
01TNR-01
  6
Continuous
 62
     7
100
AcDbLine
 10
8.65171793873005
 20
-22.56497935946542
 30
0.0
 11
69.55171793872823
 21
-22.56497935946542
 31
0.0
  0
LINE
  5
B9
330
1F
100
AcDbEntity
  8
01TNR-01
  6
Continuous
 62
     7
100
AcDbLine
 10
8.15171793873005
 20
-20.7348523405465
 30
0.0
 11
8.15171793873005
 21
-22.06497935946542
 31
0.0
  0
LINE
  5
BA
330
1F
100
AcDbEntity
  8
01TNR-01
  6
Continuous
 62
     7
100
AcDbLine
 10
10.65171793873005
 20
-20.06497935946531
 30
0.0
 11
8.15171793873005
 21
-20.7348523405465
 31
0.0
  0
LINE
  5
BB
330
1F
100
AcDbEntity
  8
01TNR-01
  6
Continuous
 62
     7
100
AcDbLine
 10
8.15171793872994
 20
-18.39510637838422
 30
0.0
 11
10.65171793873005
 21
-19.06497935946212
 31
0.0
  0
LINE
  5
BC
330
1F
100
AcDbEntity
  8
01TNR-01
  6
Continuous
 62
     7
100
AcDbLine
 10
8.15171793873005
 20
-6.2348523405465
 30
0.0
 11
8.15171793872994
 21
-18.39510637838422
 31
0.0
  0
LINE
  5
BD
330
1F
100
AcDbEntity
  8
01TNR-01
  6
Continuous
 62
     7
100
AcDbLine
 10
-3.94828206126996
 20
-6.96497935946539
 30
0.0
 11
-3.94828206126996
 21
-13.56497935946542
 31
0.0
  0
LINE
  5
BE
330
1F
100
AcDbEntity
  8
01TNR-01
  6
Continuous
 62
     7
100
AcDbLine
 10
6.15171793873005
 20
-6.46497935946539
 30
0.0
 11
-3.44828206126996
 21
-6.46497935946539
 31
0.0
  0
LINE
  5
BF
330
1F
100
AcDbEntity
  8
01TNR-01
  6
Continuous
 62
     7
100
AcDbLine
 10
6.65171793873005
 20
-22.56497935946542
 30
0.0
 11
6.65171793873005
 21
-6.96497935946539
 31
0.0
  0
LINE
  5
C0
330
1F
100
AcDbEntity
  8
01TNR-01
  6
Continuous
 62
     7
100
AcDbLine
 10
-3.94828206126987
 20
-23.06497935946542
 30
0.0
 11
6.15171793873005
 21
-23.06497935946542
 31
0.0
  0
LINE
  5
C1
330
1F
100
AcDbEntity
  8
01TNR-01
  6
Continuous
 62
     7
100
AcDbLine
 10
-4.44828206126996
 20
-14.06497935946542
 30
0.0
 11
-4.44828206126986
 21
-22.56497935946542
 31
0.0
  0
LINE
  5
C2
330
1F
100
AcDbEntity
  8
01TNR-01
  6
Continuous
 62
     7
100
AcDbLine
 10
-10.44828206126945
 20
-14.06497935946542
 30
0.0
 11
-10.95208483939506
 21
-18.1265286649342
 31
0.0
  0
LINE
  5
C3
330
1F
100
AcDbEntity
  8
01TNR-01
  6
Continuous
 62
     7
100
AcDbLine
 10
-7.44828206126996
 20
-14.06497935946542
 30
0.0
 11
-10.44828206126945
 21
-14.06497935946542
 31
0.0
  0
LINE
  5
C4
330
1F
100
AcDbEntity
  8
01TNR-01
  6
Continuous
 62
     7
100
AcDbLine
 10
-6.94828206126996
 20
-22.56497935946542
 30
0.0
 11
-6.94828206126996
 21
-14.56497935946542
 31
0.0
  0
LINE
  5
C5
330
1F
100
AcDbEntity
  8
01TNR-01
  6
Continuous
 62
     7
100
AcDbLine
 10
-10.44828206126957
 20
-23.06497935946542
 30
0.0
 11
-7.44828206126996
 21
-23.06497935946542
 31
0.0
  0
LINE
  5
C6
330
1F
100
AcDbEntity
  8
01TNR-01
  6
Continuous
 62
     7
100
AcDbLine
 10
-10.44828206126996
 20
-21.56497935946542
 30
0.0
 11
-10.44828206126957
 21
-23.06497935946542
 31
0.0
  0
LINE
  5
C7
330
1F
100
AcDbEntity
  8
01TNR-01
  6
Continuous
 62
     7
100
AcDbLine
 10
-12.44828206126957
 20
-23.06497935946542
 30
0.0
 11
-12.44828206127036
 21
-21.56497935946542
 31
0.0
  0
LINE
  5
C8
330
1F
100
AcDbEntity
  8
01TNR-01
  6
Continuous
 62
     7
100
AcDbLine
 10
-16.94828206126829
 20
-23.06497935946542
 30
0.0
 11
-12.44828206126957
 21
-23.06497935946542
 31
0.0
  0
LINE
  5
C9
330
1F
100
AcDbEntity
  8
01TNR-01
  6
Continuous
 62
     7
100
AcDbLine
 10
-16.94828206126988
 20
-21.56497935946542
 30
0.0
 11
-16.94828206126829
 21
-23.06497935946542
 31
0.0
  0
LINE
  5
CA
330
1F
100
AcDbEntity
  8
01TNR-01
  6
Continuous
 62
     7
100
AcDbLine
 10
-18.94828206126829
 20
-23.06497935946542
 30
0.0
 11
-18.94828206126829
 21
-21.56497935946542
 31
0.0
  0
LINE
  5
CB
330
1F
100
AcDbEntity
  8
01TNR-01
  6
Continuous
 62
     7
100
AcDbLine
 10
-23.44828206126999
 20
-23.06497935946542
 30
0.0
 11
-18.94828206126829
 21
-23.06497935946542
 31
0.0
  0
LINE
  5
CC
330
1F
100
AcDbEntity
  8
01TNR-01
  6
Continuous
 62
     7
100
AcDbLine
 10
-17.84828206126997
 20
-17.56497935946531
 30
0.0
 11
-23.44828206126979
 21
-17.56497935946542
 31
0.0
  0
LINE
  5
CD
330
1F
100
AcDbEntity
  8
01TNR-01
  6
Continuous
 62
     7
100
AcDbLine
 10
-16.84828206126977
 20
-14.56497935946542
 30
0.0
 11
-16.84828206126997
 21
-16.56497935946531
 31
0.0
  0
LINE
  5
CE
330
1F
100
AcDbEntity
  8
01TNR-01
  6
Continuous
 62
     7
100
AcDbLine
 10
-12.44828206126996
 20
-14.06497935946542
 30
0.0
 11
-16.34828206126977
 21
-14.06497935946542
 31
0.0
  0
LINE
  5
CF
330
1F
100
AcDbEntity
  8
01TNR-01
  6
Continuous
 62
     7
100
AcDbLine
 10
-11.94447928314476
 20
-18.12652866493412
 30
0.0
 11
-12.44828206126996
 21
-14.06497935946542
 31
0.0
  0
LINE
  5
D0
102
{ACAD_REACTORS
330
1B6
330
1B6
102
}
330
1F
100
AcDbEntity
  8
10TNR-01
  6
Continuous
 62
     7
100
AcDbLine
 10
11.34726258689064
 20
-19.5311012986206
 30
0.0
 11
11.34726258689064
 21
15.4688987013794
 31
0.0
  0
LINE
  5
D1
102
{ACAD_REACTORS
330
1B6
330
1B6
102
}
330
1F
100
AcDbEntity
  8
10TNR-01
  6
Continuous
 62
     7
100
AcDbLine
 10
58.84726258689075
 20
-22.0311012986206
 30
0.0
 11
13.84726258689064
 21
-22.0311012986206
 31
0.0
  0
LINE
  5
D2
102
{ACAD_REACTORS
330
1B6
330
1B6
102
}
330
1F
100
AcDbEntity
  8
10TNR-01
  6
Continuous
 62
     7
100
AcDbLine
 10
61.34726258689075
 20
15.4688987013794
 30
0.0
 11
61.34726258689075
 21
-19.5311012986206
 31
0.0
  0
LINE
  5
D3
102
{ACAD_REACTORS
330
1B6
330
1B6
102
}
330
1F
100
AcDbEntity
  8
10TNR-01
  6
Continuous
 62
     7
100
AcDbLine
 10
13.84726258689064
 20
17.9688987013794
 30
0.0
 11
58.84726258689075
 21
17.9688987013794
 31
0.0
  0
LINE
  5
D4
330
1F
100
AcDbEntity
  8
01TNR-01
  6
Continuous
 62
     7
100
AcDbLine
 10
-20.34828206126988
 20
-12.56497935946542
 30
0.0
 11
-19.48225665748538
 21
-11.06497935946531
 31
0.0
  0
LINE
  5
D5
330
1F
100
AcDbEntity
  8
01TNR-01
  6
Continuous
 62
     7
100
AcDbLine
 10
-19.1482820612699
 20
-12.56497935946531
 30
0.0
 11
-20.34828206126988
 21
-12.56497935946542
 31
0.0
  0
LINE
  5
D6
330
1F
100
AcDbEntity
  8
01TNR-01
  6
Continuous
 62
     7
100
AcDbLine
 10
-18.84828206126988
 20
-15.26497935946532
 30
0.0
 11
-18.84828206126988
 21
-12.86497935946531
 31
0.0
  0
LINE
  5
D7
330
1F
100
AcDbEntity
  8
01TNR-01
  6
Continuous
 62
     7
100
AcDbLine
 10
-24.14807144826247
 20
-15.56497935946542
 30
0.0
 11
-19.14828206126998
 21
-15.56497935946531
 31
0.0
  0
LINE
  5
D8
330
1F
100
AcDbEntity
  8
01TNR-01
  6
Continuous
 62
     7
100
AcDbLine
 10
-24.44807144826248
 20
-12.8649793594654
 30
0.0
 11
-24.44807144826248
 21
-15.26497935946532
 31
0.0
  0
LINE
  5
D9
330
1F
100
AcDbEntity
  8
01TNR-01
  6
Continuous
 62
     7
100
AcDbLine
 10
-22.94828206126999
 20
-12.56497935946542
 30
0.0
 11
-24.14807144826247
 21
-12.56497935946531
 31
0.0
  0
LINE
  5
DA
330
1F
100
AcDbEntity
  8
01TNR-01
  6
Continuous
 62
     7
100
AcDbLine
 10
-23.81430746505458
 20
-11.06497935946531
 30
0.0
 11
-22.94828206126999
 21
-12.56497935946542
 31
0.0
  0
LINE
  5
DB
330
1F
100
AcDbEntity
  8
01TNR-01
  6
Continuous
 62
     7
100
AcDbLine
 10
-26.44828206126979
 20
-11.06497935946531
 30
0.0
 11
-23.81430746505458
 21
-11.06497935946531
 31
0.0
  0
LINE
  5
DC
330
1F
100
AcDbEntity
  8
01TNR-01
  6
Continuous
 62
     7
100
AcDbLine
 10
-26.94828206126999
 20
-24.06497935946542
 30
0.0
 11
-26.94828206126979
 21
-11.56497935946531
 31
0.0
  0
LINE
  5
DD
330
1F
100
AcDbEntity
  8
01TNR-01
  6
Continuous
 62
     7
100
AcDbLine
 10
72.55171793872985
 20
-26.06497935946542
 30
0.0
 11
-24.94828206126999
 21
-26.06497935946542
 31
0.0
  0
LINE
  5
DE
330
1F
100
AcDbEntity
  8
01TNR-01
  6
Continuous
 62
     7
100
AcDbLine
 10
73.05171793872823
 20
-16.64066565787852
 30
0.0
 11
73.05171793872985
 21
-25.56497935946542
 31
0.0
  0
LINE
  5
DF
330
1F
100
AcDbEntity
  8
01TNR-01
  6
Continuous
 62
     7
100
AcDbLine
 10
70.81148276992964
 20
-15.82528673867942
 30
0.0
 11
73.05171793872823
 21
-16.64066565787852
 31
0.0
  0
LINE
  5
E0
330
1F
100
AcDbEntity
  8
01TNR-01
  6
Continuous
 62
     7
100
AcDbLine
 10
66.55171793872834
 20
-10.86497935946531
 30
0.0
 11
66.55171793872823
 21
-13.56497935946542
 31
0.0
  0
LINE
  5
E1
330
1F
100
AcDbEntity
  8
01TNR-01
  6
Continuous
 62
     7
100
AcDbLine
 10
73.05171793872985
 20
-10.4892930610518
 30
0.0
 11
70.81148276992964
 21
-11.30467198025131
 31
0.0
  0
LINE
  5
E2
330
1F
100
AcDbEntity
  8
01TNR-01
  6
Continuous
 62
     7
100
AcDbLine
 10
73.05171793872985
 20
-8.06497935946542
 30
0.0
 11
73.05171793872985
 21
-10.4892930610518
 31
0.0
  0
LINE
  5
E3
330
1F
100
AcDbEntity
  8
01TNR-01
  6
Continuous
 62
     7
100
AcDbLine
 10
69.48310105220973
 20
-8.0649793594653
 30
0.0
 11
73.05171793872985
 21
-8.06497935946542
 31
0.0
  0
LINE
  5
E4
330
1F
100
AcDbEntity
  8
01TNR-01
  6
Continuous
 62
     7
100
AcDbLine
 10
65.30650653008324
 20
17.21519764890039
 30
0.0
 11
68.98849932103293
 21
-7.63825369001009
 31
0.0
  0
LINE
  5
E5
330
1F
100
AcDbEntity
  8
01TNR-01
  6
Continuous
 62
     7
100
AcDbLine
 10
85.58569253494564
 20
18.9350206405345
 30
0.0
 11
66.79031172361404
 21
18.9350206405345
 31
0.0
  0
LINE
  5
E6
330
1F
100
AcDbEntity
  8
01TNR-01
  6
Continuous
 62
     7
100
AcDbLine
 10
86.45171793873003
 20
20.4350206405345
 30
0.0
 11
85.58569253494564
 21
18.9350206405345
 31
0.0
  0
LINE
  5
E7
330
1F
100
AcDbEntity
  8
01TNR-01
  6
Continuous
 62
     7
100
AcDbLine
 10
85.25071793872995
 20
20.43502064053459
 30
0.0
 11
86.45171793873003
 21
20.4350206405345
 31
0.0
  0
LINE
  5
E8
330
1F
100
AcDbEntity
  8
01TNR-01
  6
Continuous
 62
     7
100
AcDbLine
 10
84.95071793872985
 20
23.13502064053461
 30
0.0
 11
84.95071793872985
 21
20.73502064053469
 31
0.0
  0
LINE
  5
E9
330
1F
100
AcDbEntity
  8
01TNR-01
  6
Continuous
 62
     7
100
AcDbLine
 10
90.08268297705813
 20
23.43502064053459
 30
0.0
 11
85.25071793872995
 21
23.43502064053459
 31
0.0
  0
LINE
  5
EA
330
1F
100
AcDbEntity
  8
01TNR-01
  6
Continuous
 62
     7
100
AcDbLine
 10
90.54977654080035
 20
20.7559475826578
 30
0.0
 11
90.38195219213593
 21
23.15594758265769
 31
0.0
  0
LINE
  5
EB
330
1F
100
AcDbEntity
  8
01TNR-01
  6
Continuous
 62
     7
100
AcDbLine
 10
89.05171793873005
 20
20.4350206405347
 30
0.0
 11
90.25050732572255
 21
20.4350206405345
 31
0.0
  0
LINE
  5
EC
330
1F
100
AcDbEntity
  8
01TNR-01
  6
Continuous
 62
     7
100
AcDbLine
 10
89.91774334251484
 20
18.9350206405345
 30
0.0
 11
89.05171793873005
 21
20.4350206405347
 31
0.0
  0
LINE
  5
ED
330
1F
100
AcDbEntity
  8
01TNR-01
  6
Continuous
 62
     7
100
AcDbLine
 10
92.55171793873005
 20
18.9350206405345
 30
0.0
 11
89.91774334251484
 21
18.9350206405345
 31
0.0
  0
LINE
  5
EE
330
1F
100
AcDbEntity
  8
01TNR-01
  6
Continuous
 62
     7
100
AcDbLine
 10
92.16725321319777
 20
32.76786301603468
 30
0.0
 11
93.05061867287593
 21
19.46815759073459
 31
0.0
  0
LINE
  5
EF
330
1F
100
AcDbEntity
  8
01TNR-01
  6
Continuous
 62
     7
100
AcDbLine
 10
-6.94828206126986
 20
33.93502064053467
 30
0.0
 11
90.92000137783255
 21
33.93502064053467
 31
0.0
  0
LINE
  5
F0
330
1F
100
AcDbEntity
  8
01TNR-01
  6
Continuous
 62
     7
100
AcDbLine
 10
-6.44828206126996
 20
30.9350206405347
 30
0.0
 11
-6.94828206126986
 21
33.93502064053467
 31
0.0
  0
LINE
  5
F1
330
1F
100
AcDbEntity
  8
01TNR-01
  6
Continuous
 62
     7
100
AcDbLine
 10
-3.44828206126996
 20
30.9350206405347
 30
0.0
 11
-6.44828206126996
 21
30.9350206405347
 31
0.0
  0
LINE
  5
F2
330
1F
100
AcDbEntity
  8
01TNR-01
  6
Continuous
 62
     7
100
AcDbLine
 10
-3.44828206126996
 20
20.4350206405347
 30
0.0
 11
-3.44828206126996
 21
30.9350206405347
 31
0.0
  0
LINE
  5
F3
330
1F
100
AcDbEntity
  8
01TNR-01
  6
Continuous
 62
     7
100
AcDbLine
 10
-6.94828206126996
 20
19.49719846702581
 30
0.0
 11
-3.44828206126996
 21
20.4350206405347
 31
0.0
  0
LINE
  5
F4
330
1F
100
AcDbEntity
  8
01TNR-01
  6
Continuous
 62
     7
100
AcDbLine
 10
-6.94828206126996
 20
16.03502064053461
 30
0.0
 11
-6.94828206126996
 21
19.49719846702581
 31
0.0
  0
LINE
  5
F5
330
1F
100
AcDbEntity
  8
01TNR-01
  6
Continuous
 62
     7
100
AcDbLine
 10
-3.94828206126996
 20
16.03502064053461
 30
0.0
 11
-6.94828206126996
 21
16.03502064053461
 31
0.0
  0
LINE
  5
F6
330
1F
100
AcDbEntity
  8
01TNR-01
  6
Continuous
 62
     7
100
AcDbLine
 10
-3.94828206126996
 20
14.03502064053461
 30
0.0
 11
-3.94828206126996
 21
16.03502064053461
 31
0.0
  0
LINE
  5
F7
330
1F
100
AcDbEntity
  8
01TNR-01
  6
Continuous
 62
     7
100
AcDbLine
 10
-0.24828206126996
 20
14.03502064053461
 30
0.0
 11
-3.94828206126996
 21
14.03502064053461
 31
0.0
  0
LINE
  5
F8
330
1F
100
AcDbEntity
  8
01TNR-01
  6
Continuous
 62
     7
100
AcDbLine
 10
-0.24828206126996
 20
17.4350206405347
 30
0.0
 11
-0.24828206126996
 21
14.03502064053461
 31
0.0
  0
LINE
  5
F9
330
1F
100
AcDbEntity
  8
01TNR-01
  6
Continuous
 62
     7
100
AcDbLine
 10
4.65171793873005
 20
17.9350206405347
 30
0.0
 11
0.25171793873004
 21
17.9350206405347
 31
0.0
  0
LINE
  5
FA
330
1F
100
AcDbEntity
  8
01TNR-01
  6
Continuous
 62
     7
100
AcDbLine
 10
5.15171793873015
 20
6.9010460443038
 30
0.0
 11
5.15171793873005
 21
17.4350206405347
 31
0.0
  0
LINE
  5
FB
330
1F
100
AcDbEntity
  8
01TNR-01
  6
Continuous
 62
     7
100
AcDbLine
 10
5.15171793873005
 20
-3.46497935946539
 30
0.0
 11
5.15171793873005
 21
5.16899523675019
 31
0.0
  0
LINE
  5
FC
330
1F
100
AcDbEntity
  8
01TNR-01
  6
Continuous
 62
     7
100
AcDbLine
 10
0.25171793873004
 20
-3.96497935946539
 30
0.0
 11
4.65171793873005
 21
-3.96497935946539
 31
0.0
  0
LINE
  5
FD
330
1F
100
AcDbEntity
  8
01TNR-01
  6
Continuous
 62
     7
100
AcDbLine
 10
-0.24828206126996
 20
-1.96497935946539
 30
0.0
 11
-0.24828206126996
 21
-3.46497935946539
 31
0.0
  0
LINE
  5
FE
330
1F
100
AcDbEntity
  8
01TNR-01
  6
Continuous
 62
     7
100
AcDbLine
 10
-3.94828206126987
 20
-1.96497935946539
 30
0.0
 11
-0.24828206126996
 21
-1.96497935946539
 31
0.0
  0
LINE
  5
FF
330
1F
100
AcDbEntity
  8
01TNR-01
  6
Continuous
 62
     7
100
AcDbLine
 10
-3.94828206126996
 20
-3.96497935946539
 30
0.0
 11
-3.94828206126987
 21
-1.96497935946539
 31
0.0
  0
LINE
  5
100
330
1F
100
AcDbEntity
  8
01TNR-01
  6
Continuous
 62
     7
100
AcDbLine
 10
-6.94828206126996
 20
-3.96497935946539
 30
0.0
 11
-3.94828206126996
 21
-3.96497935946539
 31
0.0
  0
LINE
  5
101
330
1F
100
AcDbEntity
  8
01TNR-01
  6
Continuous
 62
     7
100
AcDbLine
 10
-6.94828206126996
 20
-11.06497935946542
 30
0.0
 11
-6.94828206126996
 21
-3.96497935946539
 31
0.0
  0
LINE
  5
102
330
1F
100
AcDbEntity
  8
01TNR-01
  6
Continuous
 62
     7
100
AcDbLine
 10
-19.48225665748538
 20
-11.06497935946531
 30
0.0
 11
-6.94828206126996
 21
-11.06497935946542
 31
0.0
  0
LINE
  5
103
330
1F
100
AcDbEntity
  8
01TNR-01
  6
Continuous
 62
     7
100
AcDbLine
 10
-22.51689894779008
 20
9.43502064053459
 30
0.0
 11
-22.48134831410599
 21
9.43502064053459
 31
0.0
  0
LINE
  5
104
330
1F
100
AcDbEntity
  8
1
  6
Continuous
 62
     7
100
AcDbLine
 10
-48.94828206126984
 20
1.9350206405347
 30
0.0
 11
-48.94828206126984
 21
-5.0649793594653
 31
0.0
  0
LINE
  5
105
330
1F
100
AcDbEntity
  8
1
  6
Continuous
 62
     7
100
AcDbLine
 10
-26.94828206126984
 20
-13.56497935946531
 30
0.0
 11
-30.94828206126984
 21
-13.56497935946531
 31
0.0
  0
LINE
  5
106
330
1F
100
AcDbEntity
  8
1
  6
Continuous
 62
     7
100
AcDbLine
 10
-30.94828206126984
 20
-25.56497935946531
 30
0.0
 11
-26.94828206126984
 21
-25.56493249424342
 31
0.0
  0
LINE
  5
107
330
1F
100
AcDbEntity
  8
1
  6
Continuous
 62
     7
100
AcDbLine
 10
-50.64828206126983
 20
-8.5649793594653
 30
0.0
 11
-50.64828206126983
 21
-11.56497935946531
 31
0.0
  0
LINE
  5
108
330
1F
100
AcDbEntity
  8
1
  6
Continuous
 62
     7
100
AcDbLine
 10
-32.64828206126984
 20
-11.56497935946531
 30
0.0
 11
-32.64828206126984
 21
-8.5649793594653
 31
0.0
  0
LINE
  5
109
330
1F
100
AcDbEntity
  8
1
  6
Continuous
 62
     7
100
AcDbLine
 10
-50.64828206126983
 20
-11.56497935946531
 30
0.0
 11
-32.64828206126984
 21
-11.56497935946531
 31
0.0
  0
LINE
  5
10A
330
1F
100
AcDbEntity
  8
1
  6
Continuous
 62
     7
100
AcDbLine
 10
-48.64828206126983
 20
-12.56497935946531
 30
0.0
 11
-34.64828206126984
 21
-12.56497935946531
 31
0.0
  0
LINE
  5
10B
330
1F
100
AcDbEntity
  8
1
  6
Continuous
 62
     7
100
AcDbLine
 10
-33.64828206126984
 20
-11.56497935946531
 30
0.0
 11
-36.36337951628157
 21
-14.28007681447703
 31
0.0
  0
LINE
  5
10C
330
1F
100
AcDbEntity
  8
1
  6
Continuous
 62
     7
100
AcDbLine
 10
-49.64828206126983
 20
-11.56497935946531
 30
0.0
 11
-46.93318460625814
 21
-14.28007681447703
 31
0.0
  0
LINE
  5
10D
330
1F
100
AcDbEntity
  8
1
  6
DOT_CENTER
 62
     2
100
AcDbLine
 10
-53.36825851384903
 20
-21.56497935946531
 30
0.0
 11
-29.73871725517934
 21
-21.56497935946531
 31
0.0
  0
LINE
  5
10E
330
1F
100
AcDbEntity
  8
1
  6
Continuous
 62
     7
100
AcDbLine
 10
-32.64828206126984
 20
-16.26497935946532
 30
0.0
 11
-32.64828206126984
 21
-22.8649910758394
 31
0.0
  0
LINE
  5
10F
330
1F
100
AcDbEntity
  8
1
  6
Continuous
 62
     7
100
AcDbLine
 10
-32.73098635866479
 20
-22.78228677844445
 30
0.0
 11
-30.94828206126984
 21
-24.56499107583941
 31
0.0
  0
LINE
  5
110
330
1F
100
AcDbEntity
  8
1
  6
Continuous
 62
     7
100
AcDbLine
 10
-30.94828206126984
 20
-13.56497935946531
 30
0.0
 11
-30.94828206126984
 21
-25.56497935946531
 31
0.0
  0
LINE
  5
111
330
1F
100
AcDbEntity
  8
1
  6
Continuous
 62
     7
100
AcDbLine
 10
-30.94828206126984
 20
-14.56497935946531
 30
0.0
 11
-33.7091524026076
 21
-17.32584970080307
 31
0.0
  0
LINE
  5
112
330
1F
100
AcDbEntity
  8
1
  6
Continuous
 62
     7
100
AcDbLine
 10
-32.64828206126984
 20
-22.8649910758394
 30
0.0
 11
-32.73098635866479
 21
-22.78228677844445
 31
0.0
  0
LINE
  5
113
330
1F
100
AcDbEntity
  8
1
  6
DOT_CENTER
 62
     2
100
AcDbLine
 10
17.41212995710091
 20
-19.56497935946531
 30
0.0
 11
-32.44828206126984
 21
-19.56497935946531
 31
0.0
  0
LINE
  5
114
330
1F
100
AcDbEntity
  8
1
  6
DASHED
 62
     2
100
AcDbLine
 10
-26.94828206126984
 20
-21.81497935946531
 30
0.0
 11
-28.56477487608142
 21
-21.81497935946531
 31
0.0
  0
LINE
  5
115
330
1F
100
AcDbEntity
  8
1
  6
DASHED
 62
     2
100
AcDbLine
 10
-28.56477487608142
 20
-21.81497935946531
 30
0.0
 11
-30.94828206126984
 21
-23.81497935946531
 31
0.0
  0
LINE
  5
116
330
1F
100
AcDbEntity
  8
1
  6
DASHED
 62
     2
100
AcDbLine
 10
-26.94828206126984
 20
-17.31497935946531
 30
0.0
 11
-28.56477487608142
 21
-17.31497935946531
 31
0.0
  0
LINE
  5
117
330
1F
100
AcDbEntity
  8
MO_
  6
Continuous
 62
     7
100
AcDbLine
 10
-26.94828206126984
 20
-25.56493249424342
 30
0.0
 11
-26.94828206126984
 21
-21.81497935946531
 31
0.0
  0
LINE
  5
118
330
1F
100
AcDbEntity
  8
1
  6
DASHED
 62
     2
100
AcDbLine
 10
-28.56477487608142
 20
-17.31497935946531
 30
0.0
 11
-30.94828206126984
 21
-15.31497935946531
 31
0.0
  0
LINE
  5
119
330
1F
100
AcDbEntity
  8
1
  6
DASHED
 62
     2
100
AcDbLine
 10
-28.56477487608142
 20
-21.81497935946531
 30
0.0
 11
-28.56477487608142
 21
-17.31497935946531
 31
0.0
  0
LINE
  5
11A
330
1F
100
AcDbEntity
  8
1
  6
DOT_CENTER
 62
     2
100
AcDbLine
 10
-41.64828206126983
 20
22.93502064053472
 30
0.0
 11
-41.64828206126983
 21
-32.34557357025462
 31
0.0
  0
LINE
  5
11B
330
1F
100
AcDbEntity
  8
1
  6
DASHED
 62
     2
100
AcDbLine
 10
-39.39828206126984
 20
-8.5649793594653
 30
0.0
 11
-39.39828206126984
 21
-9.18147217427688
 31
0.0
  0
LINE
  5
11C
330
1F
100
AcDbEntity
  8
0
  6
Continuous
 62
     7
100
AcDbLine
 10
-50.64828206126983
 20
-8.5649793594653
 30
0.0
 11
-32.64828206126984
 21
-8.5649793594653
 31
0.0
  0
LINE
  5
11D
330
1F
100
AcDbEntity
  8
1
  6
DASHED
 62
     2
100
AcDbLine
 10
-39.39828206126984
 20
-9.18147217427688
 30
0.0
 11
-37.39828206126984
 21
-11.56497935946531
 31
0.0
  0
LINE
  5
11E
330
1F
100
AcDbEntity
  8
1
  6
DASHED
 62
     2
100
AcDbLine
 10
-43.89828206126983
 20
-8.5649793594653
 30
0.0
 11
-43.89828206126983
 21
-9.18147217427688
 31
0.0
  0
LINE
  5
11F
330
1F
100
AcDbEntity
  8
1
  6
DASHED
 62
     2
100
AcDbLine
 10
-43.89828206126983
 20
-9.18147217427688
 30
0.0
 11
-45.89828206126983
 21
-11.56497935946531
 31
0.0
  0
LINE
  5
120
330
1F
100
AcDbEntity
  8
1
  6
DASHED
 62
     2
100
AcDbLine
 10
-39.39828206126984
 20
-9.18147217427688
 30
0.0
 11
-43.89828206126983
 21
-9.18147217427688
 31
0.0
  0
LINE
  5
121
330
1F
100
AcDbEntity
  8
MO_
  6
Continuous
 62
     7
100
AcDbLine
 10
-26.94828206126984
 20
-21.81497935946531
 30
0.0
 11
-26.94828206126984
 21
-17.31497935946531
 31
0.0
  0
LINE
  5
122
330
1F
100
AcDbEntity
  8
MO_
  6
Continuous
 62
     7
100
AcDbLine
 10
-26.94828206126984
 20
-17.31497935946531
 30
0.0
 11
-26.94828206126984
 21
-13.56497935946531
 31
0.0
  0
ARC
  5
123
330
1F
100
AcDbEntity
  8
01TNR-01
  6
Continuous
 62
     7
100
AcDbCircle
 10
65.03865660776354
 20
22.43502064053459
 30
0.0
 40
0.4999999999998584
100
AcDbArc
 50
-171.5730309785231
 51
-90.0000000000228
  0
ARC
  5
124
330
1F
100
AcDbEntity
  8
01TNR-01
  6
Continuous
 62
     7
100
AcDbCircle
 10
82.95071793872985
 20
22.43502064053459
 30
0.0
 40
0.5
100
AcDbArc
 50
-90.0
 51
0.0
  0
ARC
  5
125
330
1F
100
AcDbEntity
  8
01TNR-01
  6
Continuous
 62
     7
100
AcDbCircle
 10
84.45071793872985
 20
23.93502064053459
 30
0.0
 40
1.0
100
AcDbArc
 50
90.0
 51
180.0
  0
ARC
  5
126
330
1F
100
AcDbEntity
  8
01TNR-01
  6
Continuous
 62
     7
100
AcDbCircle
 10
89.14658825074123
 20
25.43502064053459
 30
0.0
 40
0.5
100
AcDbArc
 50
-90.0
 51
3.80000000000037
  0
ARC
  5
127
330
1F
100
AcDbEntity
  8
01TNR-01
  6
Continuous
 62
     7
100
AcDbCircle
 10
88.81448861716565
 20
30.43502064053379
 30
0.0
 40
0.5000000000009399
100
AcDbArc
 50
3.80000000010783
 51
90.00000000010422
  0
ARC
  5
128
330
1F
100
AcDbEntity
  8
01TNR-01
  6
Continuous
 62
     7
100
AcDbCircle
 10
63.85347142257844
 20
30.43502064053459
 30
0.0
 40
0.5000000000001101
100
AcDbArc
 50
90.0
 51
-171.5730309785265
  0
ARC
  5
129
330
1F
100
AcDbEntity
  8
01TNR-01
  6
Continuous
 62
     7
100
AcDbCircle
 10
60.82845641707134
 20
30.4350206405347
 30
0.0
 40
0.4999999999999877
100
AcDbArc
 50
8.40620299405631
 51
90.0
  0
ARC
  5
12A
330
1F
100
AcDbEntity
  8
01TNR-01
  6
Continuous
 62
     7
100
AcDbCircle
 10
62.23234530596024
 20
20.9350206405347
 30
0.0
 40
0.5
100
AcDbArc
 50
-90.0
 51
8.40620299405607
  0
ARC
  5
12B
330
1F
100
AcDbEntity
  8
01TNR-01
  6
Continuous
 62
     7
100
AcDbCircle
 10
8.65171793873005
 20
20.9350206405347
 30
0.0
 40
0.5
100
AcDbArc
 50
180.0
 51
-90.0
  0
ARC
  5
12C
330
1F
100
AcDbEntity
  8
01TNR-01
  6
Continuous
 62
     7
100
AcDbCircle
 10
8.65171793872994
 20
30.4350206405347
 30
0.0
 40
0.5
100
AcDbArc
 50
90.0
 51
180.0
  0
ARC
  5
12D
330
1F
100
AcDbEntity
  8
01TNR-01
  6
Continuous
 62
     7
100
AcDbCircle
 10
0.05171793873004
 20
20.9350206405347
 30
0.0
 40
0.5
100
AcDbArc
 50
180.0
 51
-90.0
  0
ARC
  5
12E
330
1F
100
AcDbEntity
  8
01TNR-01
  6
Continuous
 62
     7
100
AcDbCircle
 10
0.05171793873004
 20
30.4350206405347
 30
0.0
 40
0.5
100
AcDbArc
 50
90.0
 51
180.0
  0
ARC
  5
12F
330
1F
100
AcDbEntity
  8
01TNR-01
  6
Continuous
 62
     7
100
AcDbCircle
 10
6.15171793872994
 20
30.4350206405347
 30
0.0
 40
0.5
100
AcDbArc
 50
0.0
 51
90.0
  0
ARC
  5
130
330
1F
100
AcDbEntity
  8
01TNR-01
  6
Continuous
 62
     7
100
AcDbCircle
 10
6.15171793873005
 20
20.9350206405347
 30
0.0
 40
0.5
100
AcDbArc
 50
-90.0
 51
0.0
  0
ARC
  5
131
102
{ACAD_REACTORS
330
1B6
330
1B6
102
}
330
1F
100
AcDbEntity
  8
10TNR-01
  6
Continuous
 62
     7
100
AcDbCircle
 10
14.34726258689064
 20
-19.0311012986206
 30
0.0
 40
1.0
100
AcDbArc
 50
180.0
 51
-90.0
  0
ARC
  5
132
102
{ACAD_REACTORS
330
1B6
330
1B6
102
}
330
1F
100
AcDbEntity
  8
10TNR-01
  6
Continuous
 62
     7
100
AcDbCircle
 10
58.34726258689075
 20
-19.0311012986206
 30
0.0
 40
1.0
100
AcDbArc
 50
-90.0
 51
0.0
  0
ARC
  5
133
102
{ACAD_REACTORS
330
1B6
330
1B6
102
}
330
1F
100
AcDbEntity
  8
10TNR-01
  6
Continuous
 62
     7
100
AcDbCircle
 10
58.34726258689075
 20
14.9688987013794
 30
0.0
 40
1.0
100
AcDbArc
 50
0.0
 51
90.0
  0
ARC
  5
134
102
{ACAD_REACTORS
330
1B6
330
1B6
102
}
330
1F
100
AcDbEntity
  8
10TNR-01
  6
Continuous
 62
     7
100
AcDbCircle
 10
14.34726258689064
 20
14.9688987013794
 30
0.0
 40
1.0
100
AcDbArc
 50
90.0
 51
180.0
  0
ARC
  5
135
330
1F
100
AcDbEntity
  8
01TNR-01
  6
Continuous
 62
     7
100
AcDbCircle
 10
-31.17927170274339
 20
47.93502064053467
 30
0.0
 40
0.4999999999999726
100
AcDbArc
 50
8.42696902147903
 51
89.9999999999772
  0
ARC
  5
136
330
1F
100
AcDbEntity
  8
01TNR-01
  6
Continuous
 62
     7
100
AcDbCircle
 10
-29.77186429533589
 20
38.43502064053457
 30
0.0
 40
0.5
100
AcDbArc
 50
-90.0
 51
8.42696902149013
  0
ARC
  5
137
330
1F
100
AcDbEntity
  8
01TNR-01
  6
Continuous
 62
     7
100
AcDbCircle
 10
-48.44828206126984
 20
38.43502064053457
 30
0.0
 40
0.5
100
AcDbArc
 50
180.0
 51
-90.0
  0
ARC
  5
138
330
1F
100
AcDbEntity
  8
01TNR-01
  6
Continuous
 62
     7
100
AcDbCircle
 10
-48.44828206126984
 20
47.93502064053457
 30
0.0
 40
0.5
100
AcDbArc
 50
90.0
 51
180.0
  0
ARC
  5
139
330
1F
100
AcDbEntity
  8
01TNR-01
  6
Continuous
 62
     7
100
AcDbCircle
 10
-75.44828206126992
 20
38.43502064053467
 30
0.0
 40
0.5
100
AcDbArc
 50
180.0
 51
-90.0
  0
ARC
  5
13A
330
1F
100
AcDbEntity
  8
01TNR-01
  6
Continuous
 62
     7
100
AcDbCircle
 10
-75.44828206126992
 20
42.46639367393767
 30
0.0
 40
0.5000000000000243
100
AcDbArc
 50
138.590377890726
 51
180.0
  0
ARC
  5
13B
330
1F
100
AcDbEntity
  8
01TNR-01
  6
Continuous
 62
     7
100
AcDbCircle
 10
-79.94828206126992
 20
46.43502064053448
 30
0.0
 40
5.499999999999929
100
AcDbArc
 50
-41.40962210927002
 51
14.4775121859302
  0
ARC
  5
13C
330
1F
100
AcDbEntity
  8
01TNR-01
  6
Continuous
 62
     7
100
AcDbCircle
 10
-74.13880704195883
 20
47.93502064053457
 30
0.0
 40
0.5
100
AcDbArc
 50
90.0
 51
-165.5224878140627
  0
ARC
  5
13D
330
1F
100
AcDbEntity
  8
01TNR-01
  6
Continuous
 62
     7
100
AcDbCircle
 10
-51.44828206126984
 20
47.93502064053457
 30
0.0
 40
0.5
100
AcDbArc
 50
0.0
 51
90.0
  0
ARC
  5
13E
330
1F
100
AcDbEntity
  8
01TNR-01
  6
Continuous
 62
     7
100
AcDbCircle
 10
-51.44828206126984
 20
38.43502064053457
 30
0.0
 40
0.5
100
AcDbArc
 50
-90.0
 51
0.0
  0
ARC
  5
13F
330
1F
100
AcDbEntity
  8
01TNR-01
  6
Continuous
 62
     7
100
AcDbCircle
 10
-22.44828206126988
 20
-5.0649793594653
 30
0.0
 40
0.5
100
AcDbArc
 50
-90.0
 51
0.0
  0
ARC
  5
140
330
1F
100
AcDbEntity
  8
01TNR-01
  6
Continuous
 62
     7
100
AcDbCircle
 10
-22.44828206126988
 20
-2.0649793594653
 30
0.0
 40
0.5
100
AcDbArc
 50
0.0
 51
90.0
  0
ARC
  5
141
330
1F
100
AcDbEntity
  8
01TNR-01
  6
Continuous
 62
     7
100
AcDbCircle
 10
-22.94828206126979
 20
3.93502064053479
 30
0.0
 40
5.499999999998771
100
AcDbArc
 50
-160.5287793654965
 51
-89.99999999999145
  0
ARC
  5
142
330
1F
100
AcDbEntity
  8
01TNR-01
  6
Continuous
 62
     7
100
AcDbCircle
 10
-28.60513631076017
 20
1.93502064053561
 30
0.0
 40
0.4999999999990684
100
AcDbArc
 50
19.47122063433726
 51
89.99999999985344
  0
ARC
  5
143
330
1F
100
AcDbEntity
  8
01TNR-01
  6
Continuous
 62
     7
100
AcDbCircle
 10
-31.44828206126988
 20
1.9350206405347
 30
0.0
 40
0.5
100
AcDbArc
 50
90.0
 51
180.0
  0
ARC
  5
144
330
1F
100
AcDbEntity
  8
01TNR-01
  6
Continuous
 62
     7
100
AcDbCircle
 10
-31.44828206126988
 20
-5.0649793594653
 30
0.0
 40
0.5
100
AcDbArc
 50
180.0
 51
-90.0
  0
ARC
  5
145
330
1F
100
AcDbEntity
  8
01TNR-01
  6
Continuous
 62
     7
100
AcDbCircle
 10
-27.41273142758578
 20
-5.0649793594653
 30
0.0
 40
0.5
100
AcDbArc
 50
-90.0
 51
0.0
  0
ARC
  5
146
330
1F
100
AcDbEntity
  8
01TNR-01
  6
Continuous
 62
     7
100
AcDbCircle
 10
-24.41273142758578
 20
-5.0649793594653
 30
0.0
 40
0.5
100
AcDbArc
 50
180.0
 51
-90.0
  0
ARC
  5
147
330
1F
100
AcDbEntity
  8
01TNR-01
  6
Continuous
 62
     7
100
AcDbCircle
 10
-34.44828206126988
 20
1.9350206405347
 30
0.0
 40
0.5
100
AcDbArc
 50
0.0
 51
90.0
  0
ARC
  5
148
330
1F
100
AcDbEntity
  8
01TNR-01
  6
Continuous
 62
     7
100
AcDbCircle
 10
-34.44828206126988
 20
-5.0649793594653
 30
0.0
 40
0.5
100
AcDbArc
 50
-90.0
 51
0.0
  0
ARC
  5
149
330
1F
100
AcDbEntity
  8
01TNR-01
  6
Continuous
 62
     7
100
AcDbCircle
 10
-74.13880704195874
 20
-5.0649793594653
 30
0.0
 40
0.5000000000000424
100
AcDbArc
 50
165.5224878140848
 51
-90.0
  0
ARC
  5
14A
330
1F
100
AcDbEntity
  8
01TNR-01
  6
Continuous
 62
     7
100
AcDbCircle
 10
-79.94828206126984
 20
-3.5649793594653
 30
0.0
 40
5.499999999999929
100
AcDbArc
 50
-14.47751218593141
 51
43.34175822722251
  0
ARC
  5
14B
330
1F
100
AcDbEntity
  8
01TNR-01
  6
Continuous
 62
     7
100
AcDbCircle
 10
-75.44828206126984
 20
1.9350206405347
 30
0.0
 40
0.5
100
AcDbArc
 50
90.0
 51
180.0
  0
ARC
  5
14C
330
1F
100
AcDbEntity
  8
01TNR-01
  6
Continuous
 62
     7
100
AcDbCircle
 10
-51.44828206126984
 20
1.9350206405347
 30
0.0
 40
0.5
100
AcDbArc
 50
0.0
 51
90.0
  0
ARC
  5
14D
330
1F
100
AcDbEntity
  8
01TNR-01
  6
Continuous
 62
     7
100
AcDbCircle
 10
-51.44828206126984
 20
-5.0649793594653
 30
0.0
 40
0.5
100
AcDbArc
 50
-90.0
 51
0.0
  0
ARC
  5
14E
102
{ACAD_REACTORS
330
1B7
330
1B7
102
}
330
1F
100
AcDbEntity
  8
10TNR-01
  6
Continuous
 62
     7
100
AcDbCircle
 10
-72.69828206126992
 20
32.68502064053467
 30
0.0
 40
0.5000000000002061
100
AcDbArc
 50
90.0
 51
179.9999999999764
  0
ARC
  5
14F
102
{ACAD_REACTORS
330
1B7
330
1B7
102
}
330
1F
100
AcDbEntity
  8
10TNR-01
  6
Continuous
 62
     7
100
AcDbCircle
 10
-32.69828206126988
 20
32.68502064053467
 30
0.0
 40
0.5
100
AcDbArc
 50
0.0
 51
90.0
  0
ARC
  5
150
102
{ACAD_REACTORS
330
1B7
330
1B7
102
}
330
1F
100
AcDbEntity
  8
10TNR-01
  6
Continuous
 62
     7
100
AcDbCircle
 10
-32.69828206126988
 20
32.68502064053467
 30
0.0
 40
2.5
100
AcDbArc
 50
0.0
 51
90.0
  0
ARC
  5
151
102
{ACAD_REACTORS
330
1B7
330
1B7
102
}
330
1F
100
AcDbEntity
  8
10TNR-01
  6
Continuous
 62
     7
100
AcDbCircle
 10
-72.69828206126992
 20
32.68502064053467
 30
0.0
 40
2.5
100
AcDbArc
 50
90.0
 51
180.0
  0
ARC
  5
152
102
{ACAD_REACTORS
330
1B7
330
1B7
102
}
330
1F
100
AcDbEntity
  8
10TNR-01
  6
Continuous
 62
     7
100
AcDbCircle
 10
-72.69828206126992
 20
7.68502064053479
 30
0.0
 40
2.5
100
AcDbArc
 50
179.9999999999974
 51
-89.99999999999805
  0
ARC
  5
153
102
{ACAD_REACTORS
330
1B7
330
1B7
102
}
330
1F
100
AcDbEntity
  8
10TNR-01
  6
Continuous
 62
     7
100
AcDbCircle
 10
-32.69828206126988
 20
7.68502064053479
 30
0.0
 40
2.499999999999886
100
AcDbArc
 50
-90.0
 51
0.0
  0
ARC
  5
154
102
{ACAD_REACTORS
330
1B7
330
1B7
102
}
330
1F
100
AcDbEntity
  8
10TNR-01
  6
Continuous
 62
     7
100
AcDbCircle
 10
-32.69828206126988
 20
7.68502064053479
 30
0.0
 40
0.5
100
AcDbArc
 50
-90.0
 51
0.0
  0
ARC
  5
155
102
{ACAD_REACTORS
330
1B7
330
1B7
102
}
330
1F
100
AcDbEntity
  8
10TNR-01
  6
Continuous
 62
     7
100
AcDbCircle
 10
-72.69828206126992
 20
7.68502064053479
 30
0.0
 40
0.5
100
AcDbArc
 50
180.0
 51
-90.0
  0
ARC
  5
156
330
1F
100
AcDbEntity
  8
01TNR-01
  6
Continuous
 62
     7
100
AcDbCircle
 10
-26.65285168302387
 20
10.5580134754548
 30
0.0
 40
0.4999999999994339
100
AcDbArc
 50
-60.66570434461021
 51
8.42696902137433
  0
ARC
  5
157
330
1F
100
AcDbEntity
  8
01TNR-01
  6
Continuous
 62
     7
100
AcDbCircle
 10
-30.33833422599938
 20
35.43502064053467
 30
0.0
 40
0.5000000000000604
100
AcDbArc
 50
8.42696902147754
 51
90.0
  0
ARC
  5
158
330
1F
100
AcDbEntity
  8
01TNR-01
  6
Continuous
 62
     7
100
AcDbCircle
 10
-75.44828206126992
 20
35.43502064053457
 30
0.0
 40
0.5
100
AcDbArc
 50
90.0
 51
180.0
  0
ARC
  5
159
330
1F
100
AcDbEntity
  8
01TNR-01
  6
Continuous
 62
     7
100
AcDbCircle
 10
-75.44828206126984
 20
4.9350206405347
 30
0.0
 40
0.5
100
AcDbArc
 50
180.0
 51
-90.0
  0
ARC
  5
15A
330
1F
100
AcDbEntity
  8
01TNR-01
  6
Continuous
 62
     7
100
AcDbCircle
 10
-28.94828206126988
 20
4.9350206405347
 30
0.0
 40
0.5
100
AcDbArc
 50
-90.0
 51
0.0
  0
ARC
  5
15B
330
1F
100
AcDbEntity
  8
01TNR-01
  6
Continuous
 62
     7
100
AcDbCircle
 10
-24.44828206126988
 20
6.63502064053469
 30
0.0
 40
4.000000000000015
100
AcDbArc
 50
119.3342956555026
 51
-179.9999999999988
  0
ARC
  5
15C
330
1F
100
AcDbEntity
  8
01TNR-01
  6
Continuous
 62
     7
100
AcDbCircle
 10
-3.18614510416145
 20
47.93502064053457
 30
0.0
 40
0.4999999999998671
100
AcDbArc
 50
3.80000000000216
 51
90.0
  0
ARC
  5
15D
330
1F
100
AcDbEntity
  8
01TNR-01
  6
Continuous
 62
     7
100
AcDbCircle
 10
-28.14652857741967
 20
47.93502064053457
 30
0.0
 40
0.5
100
AcDbArc
 50
90.0
 51
-171.5730309785023
  0
ARC
  5
15E
330
1F
100
AcDbEntity
  8
01TNR-01
  6
Continuous
 62
     7
100
AcDbCircle
 10
-26.96134339223448
 20
39.93502064053457
 30
0.0
 40
0.5000000000000744
100
AcDbArc
 50
-171.5730309785145
 51
-90.00000000001384
  0
ARC
  5
15F
330
1F
100
AcDbEntity
  8
01TNR-01
  6
Continuous
 62
     7
100
AcDbCircle
 10
-9.04717464019826
 20
39.93502064053457
 30
0.0
 40
0.5
100
AcDbArc
 50
-90.0
 51
0.0
  0
ARC
  5
160
330
1F
100
AcDbEntity
  8
01TNR-01
  6
Continuous
 62
     7
100
AcDbCircle
 10
-7.04717464019826
 20
40.93502064053457
 30
0.0
 40
1.5
100
AcDbArc
 50
90.0
 51
180.0
  0
ARC
  5
161
330
1F
100
AcDbEntity
  8
01TNR-01
  6
Continuous
 62
     7
100
AcDbCircle
 10
-2.85404547058676
 20
42.93502064053457
 30
0.0
 40
0.4999999999999005
100
AcDbArc
 50
-90.00000000001135
 51
3.80000000000215
  0
ARC
  5
162
330
1F
100
AcDbEntity
  8
01TNR-01
  6
Continuous
 62
     7
100
AcDbCircle
 10
-24.44828206126988
 20
6.63502064053469
 30
0.0
 40
1.000000000000008
100
AcDbArc
 50
4.08510236539758
 51
180.0
  0
ARC
  5
163
330
1F
100
AcDbEntity
  8
01TNR-01
  6
Continuous
 62
     7
100
AcDbCircle
 10
-23.15158491996829
 20
6.72763016347989
 30
0.0
 40
0.299999999999934
100
AcDbArc
 50
-175.9148976346238
 51
-85.83619461602186
  0
ARC
  5
164
330
1F
100
AcDbEntity
  8
01TNR-01
  6
Continuous
 62
     7
100
AcDbCircle
 10
-22.94828206126979
 20
3.93502064053479
 30
0.0
 40
2.499999999999702
100
AcDbArc
 50
66.1044918138438
 51
94.16380538399069
  0
ARC
  5
165
330
1F
100
AcDbEntity
  8
01TNR-01
  6
Continuous
 62
     7
100
AcDbCircle
 10
-21.53053737339428
 20
7.1350206405352
 30
0.0
 40
1.000000000000566
100
AcDbArc
 50
-113.8955081861507
 51
-70.00000000000395
  0
ARC
  5
166
330
1F
100
AcDbEntity
  8
01TNR-01
  6
Continuous
 62
     7
100
AcDbCircle
 10
-22.5168989477902
 20
9.93502064053459
 30
0.0
 40
0.4999999999999559
100
AcDbArc
 50
-171.5730309785116
 51
-89.99999999998616
  0
ARC
  5
167
330
1F
100
AcDbEntity
  8
01TNR-01
  6
Continuous
 62
     7
100
AcDbCircle
 10
-25.20968827638589
 20
34.93502064053457
 30
0.0
 40
1.5
100
AcDbArc
 50
90.0000000000034
 51
-171.57303097852
  0
ARC
  5
168
330
1F
100
AcDbEntity
  8
01TNR-01
  6
Continuous
 62
     7
100
AcDbCircle
 10
-6.74717464019835
 20
38.23502064053447
 30
0.0
 40
0.2999999999999119
100
AcDbArc
 50
180.0
 51
-90.0
  0
ARC
  5
169
330
1F
100
AcDbEntity
  8
01TNR-01
  6
Continuous
 62
     7
100
AcDbCircle
 10
-6.74717464019825
 20
40.63502064053458
 30
0.0
 40
0.2999999999999901
100
AcDbArc
 50
90.000000000019
 51
180.0
  0
ARC
  5
16A
330
1F
100
AcDbEntity
  8
01TNR-01
  6
Continuous
 62
     7
100
AcDbCircle
 10
-1.90658246431405
 20
40.63502064053478
 30
0.0
 40
0.299999999999976
100
AcDbArc
 50
3.80000000000009
 51
90.0
  0
ARC
  5
16B
330
1F
100
AcDbEntity
  8
01TNR-01
  6
Continuous
 62
     7
100
AcDbCircle
 10
-1.74717464019825
 20
38.23502064053447
 30
0.0
 40
0.2999999999999048
100
AcDbArc
 50
-90.00000000001889
 51
3.80000000000398
  0
ARC
  5
16C
330
1F
100
AcDbEntity
  8
01TNR-01
  6
Continuous
 62
     7
100
AcDbCircle
 10
0.55108421740204
 20
36.93502064053457
 30
0.0
 40
0.5
100
AcDbArc
 50
-90.0
 51
3.80000000000205
  0
ARC
  5
16D
330
1F
100
AcDbEntity
  8
01TNR-01
  6
Continuous
 62
     7
100
AcDbCircle
 10
-1.08063234349567
 20
50.18502064053457
 30
0.0
 40
1.250000000000136
100
AcDbArc
 50
3.79999999999567
 51
90.0
  0
ARC
  5
16E
330
1F
100
AcDbEntity
  8
01TNR-01
  6
Continuous
 62
     7
100
AcDbCircle
 10
-79.94828206126992
 20
46.43502064053448
 30
0.0
 40
2.499999999999968
100
AcDbArc
 50
-118.3576365763262
 51
118.3576365763252
  0
ARC
  5
16F
330
1F
100
AcDbEntity
  8
01TNR-01
  6
Continuous
 62
     7
100
AcDbCircle
 10
-81.44828206126992
 20
33.43502064053457
 30
0.0
 40
1.499999999999984
100
AcDbArc
 50
19.47122063449091
 51
160.5287793655095
  0
ARC
  5
170
330
1F
100
AcDbEntity
  8
01TNR-01
  6
Continuous
 62
     7
100
AcDbCircle
 10
-82.94828206126984
 20
2.4350206405347
 30
0.0
 40
1.0
100
AcDbArc
 50
90.0
 51
180.0
  0
ARC
  5
171
330
1F
100
AcDbEntity
  8
01TNR-01
  6
Continuous
 62
     7
100
AcDbCircle
 10
-79.94828206126984
 20
-3.5649793594653
 30
0.0
 40
2.500000000000156
100
AcDbArc
 50
-118.357636576329
 51
118.3576365763251
  0
ARC
  5
172
330
1F
100
AcDbEntity
  8
01TNR-01
  6
Continuous
 62
     7
100
AcDbCircle
 10
-19.44828206126988
 20
-8.0649793594653
 30
0.0
 40
0.5
100
AcDbArc
 50
-90.0
 51
0.0
  0
ARC
  5
173
330
1F
100
AcDbEntity
  8
01TNR-01
  6
Continuous
 62
     7
100
AcDbCircle
 10
-21.53053737339408
 20
0.73502064053469
 30
0.0
 40
0.999999999999977
100
AcDbArc
 50
70.00000000000317
 51
113.8955081861541
  0
ARC
  5
174
330
1F
100
AcDbEntity
  8
01TNR-01
  6
Continuous
 62
     7
100
AcDbCircle
 10
-22.94828206126979
 20
3.93502064053479
 30
0.0
 40
2.500000000000089
100
AcDbArc
 50
-179.999999999998
 51
-66.10449181383802
  0
ARC
  5
175
330
1F
100
AcDbEntity
  8
01TNR-01
  6
Continuous
 62
     7
100
AcDbCircle
 10
10.65171793873005
 20
-5.06497935946371
 30
0.0
 40
0.5000000000015916
100
AcDbArc
 50
-90.0
 51
90.0
  0
ARC
  5
176
330
1F
100
AcDbEntity
  8
01TNR-01
  6
Continuous
 62
     7
100
AcDbCircle
 10
9.65171793873005
 20
6.03502064053461
 30
0.0
 40
1.0
100
AcDbArc
 50
90.0
 51
-90.0
  0
ARC
  5
177
330
1F
100
AcDbEntity
  8
01TNR-01
  6
Continuous
 62
     7
100
AcDbCircle
 10
8.65171793873005
 20
17.9350206405347
 30
0.0
 40
0.5
100
AcDbArc
 50
90.0
 51
180.0
  0
ARC
  5
178
330
1F
100
AcDbEntity
  8
01TNR-01
  6
Continuous
 62
     7
100
AcDbCircle
 10
61.66166577400064
 20
17.93502064053459
 30
0.0
 40
0.500000000000076
100
AcDbArc
 50
8.42696902148962
 51
90.0
  0
ARC
  5
179
330
1F
100
AcDbEntity
  8
01TNR-01
  6
Continuous
 62
     7
100
AcDbCircle
 10
63.55171793873005
 20
4.93502064053459
 30
0.0
 40
1.5
100
AcDbArc
 50
90.0
 51
-90.0
  0
ARC
  5
17A
330
1F
100
AcDbEntity
  8
01TNR-01
  6
Continuous
 62
     7
100
AcDbCircle
 10
65.34714831697475
 20
-6.941986524541
 30
0.0
 40
0.5000000000000374
100
AcDbArc
 50
-60.66570434454074
 51
8.4269690214864
  0
ARC
  5
17B
330
1F
100
AcDbEntity
  8
01TNR-01
  6
Continuous
 62
     7
100
AcDbCircle
 10
67.55171793872934
 20
-10.8649793594629
 30
0.0
 40
4.000000000001265
100
AcDbArc
 50
119.3342956554889
 51
-178.5674487971879
  0
ARC
  5
17C
330
1F
100
AcDbEntity
  8
01TNR-01
  6
Continuous
 62
     7
100
AcDbCircle
 10
63.55171793872823
 20
-12.46497935946539
 30
0.0
 40
1.499999999999998
100
AcDbArc
 50
89.95224555114254
 51
-89.44385600994453
  0
ARC
  5
17D
330
1F
100
AcDbEntity
  8
01TNR-01
  6
Continuous
 62
     7
100
AcDbCircle
 10
69.05171793872823
 20
-13.56497935946531
 30
0.0
 40
5.500000000000007
100
AcDbArc
 50
-175.8300901596102
 51
-85.21980815279962
  0
ARC
  5
17E
330
1F
100
AcDbEntity
  8
01TNR-01
  6
Continuous
 62
     7
100
AcDbCircle
 10
69.55171793872823
 20
-19.5441097310154
 30
0.0
 40
0.5
100
AcDbArc
 50
0.0
 51
94.7801918471915
  0
ARC
  5
17F
330
1F
100
AcDbEntity
  8
01TNR-01
  6
Continuous
 62
     7
100
AcDbCircle
 10
69.55171793872823
 20
-22.06497935946542
 30
0.0
 40
0.5
100
AcDbArc
 50
-90.0
 51
0.0
  0
ARC
  5
180
330
1F
100
AcDbEntity
  8
01TNR-01
  6
Continuous
 62
     7
100
AcDbCircle
 10
8.65171793873005
 20
-22.06497935946542
 30
0.0
 40
0.5
100
AcDbArc
 50
180.0
 51
-90.0
  0
ARC
  5
181
330
1F
100
AcDbEntity
  8
01TNR-01
  6
Continuous
 62
     7
100
AcDbCircle
 10
10.65171793873005
 20
-19.56497935946371
 30
0.0
 40
0.5000000000015987
100
AcDbArc
 50
-90.0
 51
90.0
  0
ARC
  5
182
330
1F
100
AcDbEntity
  8
01TNR-01
  6
Continuous
 62
     7
100
AcDbCircle
 10
-3.44828206126996
 20
-6.96497935946539
 30
0.0
 40
0.5
100
AcDbArc
 50
90.0
 51
180.0
  0
ARC
  5
183
330
1F
100
AcDbEntity
  8
01TNR-01
  6
Continuous
 62
     7
100
AcDbCircle
 10
6.15171793873005
 20
-6.96497935946539
 30
0.0
 40
0.5
100
AcDbArc
 50
0.0
 51
90.0
  0
ARC
  5
184
330
1F
100
AcDbEntity
  8
01TNR-01
  6
Continuous
 62
     7
100
AcDbCircle
 10
6.15171793873005
 20
-22.56497935946542
 30
0.0
 40
0.5
100
AcDbArc
 50
-90.0
 51
0.0
  0
ARC
  5
185
330
1F
100
AcDbEntity
  8
01TNR-01
  6
Continuous
 62
     7
100
AcDbCircle
 10
-3.94828206126987
 20
-22.56497935946542
 30
0.0
 40
0.4999999999999996
100
AcDbArc
 50
180.0
 51
-90.0
  0
ARC
  5
186
330
1F
100
AcDbEntity
  8
01TNR-01
  6
Continuous
 62
     7
100
AcDbCircle
 10
-4.44828206126996
 20
-13.56497935946542
 30
0.0
 40
0.5
100
AcDbArc
 50
-90.0
 51
-0.00007187943355
  0
ARC
  5
187
330
1F
100
AcDbEntity
  8
01TNR-01
  6
Continuous
 62
     7
100
AcDbCircle
 10
-11.44828206126987
 20
-18.06497935946542
 30
0.0
 40
0.4999999999999037
100
AcDbArc
 50
-172.9291406647189
 51
-7.07096618675592
  0
ARC
  5
188
330
1F
100
AcDbEntity
  8
01TNR-01
  6
Continuous
 62
     7
100
AcDbCircle
 10
-7.44828206126996
 20
-14.56497935946542
 30
0.0
 40
0.5
100
AcDbArc
 50
0.0
 51
90.0
  0
ARC
  5
189
330
1F
100
AcDbEntity
  8
01TNR-01
  6
Continuous
 62
     7
100
AcDbCircle
 10
-7.44828206126996
 20
-22.56497935946542
 30
0.0
 40
0.5
100
AcDbArc
 50
-90.0
 51
0.0
  0
ARC
  5
18A
330
1F
100
AcDbEntity
  8
01TNR-01
  6
Continuous
 62
     7
100
AcDbCircle
 10
-11.44828206127016
 20
-21.56497935946542
 30
0.0
 40
1.000000000000199
100
AcDbArc
 50
0.0
 51
180.0
  0
ARC
  5
18B
330
1F
100
AcDbEntity
  8
01TNR-01
  6
Continuous
 62
     7
100
AcDbCircle
 10
-17.94828206126908
 20
-21.56497935946542
 30
0.0
 40
0.9999999999992006
100
AcDbArc
 50
0.0
 51
180.0
  0
ARC
  5
18C
330
1F
100
AcDbEntity
  8
01TNR-01
  6
Continuous
 62
     7
100
AcDbCircle
 10
-23.44828206126988
 20
-22.5649793594655
 30
0.0
 40
0.4999999999999112
100
AcDbArc
 50
179.9999999999906
 51
-90.00000000001262
  0
ARC
  5
18D
330
1F
100
AcDbEntity
  8
01TNR-01
  6
Continuous
 62
     7
100
AcDbCircle
 10
-23.44828206126979
 20
-18.06497935946542
 30
0.0
 40
0.5
100
AcDbArc
 50
90.0
 51
180.0
  0
ARC
  5
18E
330
1F
100
AcDbEntity
  8
01TNR-01
  6
Continuous
 62
     7
100
AcDbCircle
 10
-17.84828206126997
 20
-16.56497935946531
 30
0.0
 40
1.0
100
AcDbArc
 50
-90.0
 51
0.0
  0
ARC
  5
18F
330
1F
100
AcDbEntity
  8
01TNR-01
  6
Continuous
 62
     7
100
AcDbCircle
 10
-16.34828206126977
 20
-14.56497935946542
 30
0.0
 40
0.5
100
AcDbArc
 50
90.0
 51
180.0
  0
ARC
  5
190
102
{ACAD_REACTORS
330
1B6
330
1B6
102
}
330
1F
100
AcDbEntity
  8
10TNR-01
  6
Continuous
 62
     7
100
AcDbCircle
 10
13.84726258689064
 20
-19.5311012986206
 30
0.0
 40
2.5
100
AcDbArc
 50
180.0
 51
-90.0
  0
ARC
  5
191
102
{ACAD_REACTORS
330
1B6
330
1B6
102
}
330
1F
100
AcDbEntity
  8
10TNR-01
  6
Continuous
 62
     7
100
AcDbCircle
 10
58.84726258689075
 20
-19.5311012986206
 30
0.0
 40
2.5
100
AcDbArc
 50
-90.0
 51
0.0
  0
ARC
  5
192
102
{ACAD_REACTORS
330
1B6
330
1B6
102
}
330
1F
100
AcDbEntity
  8
10TNR-01
  6
Continuous
 62
     7
100
AcDbCircle
 10
58.84726258689075
 20
15.4688987013794
 30
0.0
 40
2.5
100
AcDbArc
 50
0.0
 51
90.0
  0
ARC
  5
193
102
{ACAD_REACTORS
330
1B6
330
1B6
102
}
330
1F
100
AcDbEntity
  8
10TNR-01
  6
Continuous
 62
     7
100
AcDbCircle
 10
13.84726258689064
 20
15.4688987013794
 30
0.0
 40
2.499999999999998
100
AcDbArc
 50
90.0
 51
180.0
  0
ARC
  5
194
330
1F
100
AcDbEntity
  8
01TNR-01
  6
Continuous
 62
     7
100
AcDbCircle
 10
-19.1482820612699
 20
-12.86497935946531
 30
0.0
 40
0.3000000000000185
100
AcDbArc
 50
0.0
 51
90.0
  0
ARC
  5
195
330
1F
100
AcDbEntity
  8
01TNR-01
  6
Continuous
 62
     7
100
AcDbCircle
 10
-19.1482820612699
 20
-15.26497935946521
 30
0.0
 40
0.3000000000001002
100
AcDbArc
 50
-90.0000000000156
 51
-0.00000000002103
  0
ARC
  5
196
330
1F
100
AcDbEntity
  8
01TNR-01
  6
Continuous
 62
     7
100
AcDbCircle
 10
-24.14807144826247
 20
-15.26497935946532
 30
0.0
 40
0.3000000000000078
100
AcDbArc
 50
180.0
 51
-90.0
  0
ARC
  5
197
330
1F
100
AcDbEntity
  8
01TNR-01
  6
Continuous
 62
     7
100
AcDbCircle
 10
-24.14807144826247
 20
-12.86497935946531
 30
0.0
 40
0.3000000000000007
100
AcDbArc
 50
90.0
 51
-179.9999999999831
  0
ARC
  5
198
330
1F
100
AcDbEntity
  8
01TNR-01
  6
Continuous
 62
     7
100
AcDbCircle
 10
-26.44828206126979
 20
-11.56497935946531
 30
0.0
 40
0.5
100
AcDbArc
 50
90.0
 51
180.0
  0
ARC
  5
199
330
1F
100
AcDbEntity
  8
01TNR-01
  6
Continuous
 62
     7
100
AcDbCircle
 10
-24.94828206126999
 20
-24.06497935946542
 30
0.0
 40
2.0
100
AcDbArc
 50
180.0
 51
-90.0
  0
ARC
  5
19A
330
1F
100
AcDbEntity
  8
01TNR-01
  6
Continuous
 62
     7
100
AcDbCircle
 10
72.55171793872985
 20
-25.56497935946542
 30
0.0
 40
0.5
100
AcDbArc
 50
-90.0
 51
0.0
  0
ARC
  5
19B
330
1F
100
AcDbEntity
  8
01TNR-01
  6
Continuous
 62
     7
100
AcDbCircle
 10
70.46946262660403
 20
-16.76497935946521
 30
0.0
 40
0.999999999999871
100
AcDbArc
 50
70.00000000000075
 51
113.8955081861675
  0
ARC
  5
19C
330
1F
100
AcDbEntity
  8
01TNR-01
  6
Continuous
 62
     7
100
AcDbCircle
 10
69.05171793872823
 20
-13.56497935946531
 30
0.0
 40
2.5
100
AcDbArc
 50
-179.9999999999975
 51
-66.1044918138397
  0
ARC
  5
19D
330
1F
100
AcDbEntity
  8
01TNR-01
  6
Continuous
 62
     7
100
AcDbCircle
 10
67.55171793872823
 20
-10.86497935946531
 30
0.0
 40
0.9999999999999227
100
AcDbArc
 50
4.08510236539752
 51
180.0
  0
ARC
  5
19E
330
1F
100
AcDbEntity
  8
01TNR-01
  6
Continuous
 62
     7
100
AcDbCircle
 10
68.84841508002985
 20
-10.77236983652001
 30
0.0
 40
0.3000000000000589
100
AcDbArc
 50
-175.9148976346041
 51
-85.83619461602339
  0
ARC
  5
19F
330
1F
100
AcDbEntity
  8
01TNR-01
  6
Continuous
 62
     7
100
AcDbCircle
 10
69.05171793872823
 20
-13.56497935946531
 30
0.0
 40
2.499999999999869
100
AcDbArc
 50
66.1044918138404
 51
94.16380538398778
  0
ARC
  5
1A0
330
1F
100
AcDbEntity
  8
01TNR-01
  6
Continuous
 62
     7
100
AcDbCircle
 10
70.46946262660403
 20
-10.36497935946531
 30
0.0
 40
1.000000000000136
100
AcDbArc
 50
-113.8955081861669
 51
-70.00000000000482
  0
ARC
  5
1A1
330
1F
100
AcDbEntity
  8
01TNR-01
  6
Continuous
 62
     7
100
AcDbCircle
 10
69.48310105220973
 20
-7.56497935946542
 30
0.0
 40
0.4999999999998574
100
AcDbArc
 50
-171.573030978524
 51
-90.0
  0
ARC
  5
1A2
330
1F
100
AcDbEntity
  8
01TNR-01
  6
Continuous
 62
     7
100
AcDbCircle
 10
66.79031172361404
 20
17.4350206405345
 30
0.0
 40
1.5
100
AcDbArc
 50
90.0
 51
-171.5730309785224
  0
ARC
  5
1A3
330
1F
100
AcDbEntity
  8
01TNR-01
  6
Continuous
 62
     7
100
AcDbCircle
 10
85.25071793872995
 20
20.7350206405346
 30
0.0
 40
0.3000000000000966
100
AcDbArc
 50
179.9999999999831
 51
-90.0
  0
ARC
  5
1A4
330
1F
100
AcDbEntity
  8
01TNR-01
  6
Continuous
 62
     7
100
AcDbCircle
 10
85.25071793872995
 20
23.13502064053461
 30
0.0
 40
0.2999999999999794
100
AcDbArc
 50
90.0
 51
180.0
  0
ARC
  5
1A5
330
1F
100
AcDbEntity
  8
01TNR-01
  6
Continuous
 62
     7
100
AcDbCircle
 10
90.08268297705813
 20
23.13502064053461
 30
0.0
 40
0.2999999999998418
100
AcDbArc
 50
3.99999999997181
 51
90.0
  0
ARC
  5
1A6
330
1F
100
AcDbEntity
  8
01TNR-01
  6
Continuous
 62
     7
100
AcDbCircle
 10
90.25050732572255
 20
20.7350206405344
 30
0.0
 40
0.2999999999999012
100
AcDbArc
 50
-90.0
 51
4.00000000003273
  0
ARC
  5
1A7
330
1F
100
AcDbEntity
  8
01TNR-01
  6
Continuous
 62
     7
100
AcDbCircle
 10
92.55171793873005
 20
19.4350206405345
 30
0.0
 40
0.5
100
AcDbArc
 50
-90.0
 51
3.80000000001161
  0
ARC
  5
1A8
330
1F
100
AcDbEntity
  8
01TNR-01
  6
Continuous
 62
     7
100
AcDbCircle
 10
90.92000137783255
 20
32.68502064053467
 30
0.0
 40
1.250000000000157
100
AcDbArc
 50
3.80000000000018
 51
90.0
  0
ARC
  5
1A9
330
1F
100
AcDbEntity
  8
01TNR-01
  6
Continuous
 62
     7
100
AcDbCircle
 10
0.25171793873004
 20
17.4350206405347
 30
0.0
 40
0.5
100
AcDbArc
 50
90.0
 51
180.0
  0
ARC
  5
1AA
330
1F
100
AcDbEntity
  8
01TNR-01
  6
Continuous
 62
     7
100
AcDbCircle
 10
4.65171793873005
 20
17.4350206405347
 30
0.0
 40
0.5
100
AcDbArc
 50
0.0
 51
90.0
  0
ARC
  5
1AB
330
1F
100
AcDbEntity
  8
01TNR-01
  6
Continuous
 62
     7
100
AcDbCircle
 10
4.65171793873454
 20
6.03502064052699
 30
0.0
 40
0.9999999999911453
100
AcDbArc
 50
-60.00000000000372
 51
59.99999999999878
  0
ARC
  5
1AC
330
1F
100
AcDbEntity
  8
01TNR-01
  6
Continuous
 62
     7
100
AcDbCircle
 10
4.65171793873005
 20
-3.46497935946539
 30
0.0
 40
0.5
100
AcDbArc
 50
-90.0
 51
0.0
  0
ARC
  5
1AD
330
1F
100
AcDbEntity
  8
01TNR-01
  6
Continuous
 62
     7
100
AcDbCircle
 10
0.25171793873004
 20
-3.46497935946539
 30
0.0
 40
0.5
100
AcDbArc
 50
180.0
 51
-90.0
  0
ARC
  5
1AE
330
1F
100
AcDbEntity
  8
1
  6
Continuous
 62
     7
100
AcDbCircle
 10
-41.64828206126983
 20
-21.56497935946531
 30
0.0
 40
9.000000000000007
100
AcDbArc
 50
54.04063103692796
 51
125.9593689630723
  0
ARC
  5
1AF
330
1F
100
AcDbEntity
  8
1
  6
Continuous
 62
     7
100
AcDbCircle
 10
-41.64828206126983
 20
-21.56497935946531
 30
0.0
 40
9.000000000000007
100
AcDbArc
 50
28.10016402296413
 51
54.04063103692796
  0
ARC
  5
1B0
330
1F
100
AcDbEntity
  8
1
  6
Continuous
 62
     7
100
AcDbCircle
 10
-41.64828206126983
 20
-21.56497935946531
 30
0.0
 40
9.000000000000032
100
AcDbArc
 50
125.9593689630723
 51
-7.77344535138178
  0
ARC
  5
1B1
330
1F
100
AcDbEntity
  8
1
  6
Continuous
 62
     7
100
AcDbCircle
 10
-41.64828206126983
 20
-21.56497935946531
 30
0.0
 40
9.000000000000005
100
AcDbArc
 50
-7.77344535138178
 51
28.10016402296413
  0
LWPOLYLINE
  5
1B2
330
1F
100
AcDbEntity
  8
10TNR-01
  6
Continuous
 62
     7
 60
     1
100
AcDbPolyline
 90
        3
 70
     0
 43
0.0
 10
-15.44828206126988
 20
26.99518846727051
 10
-15.44828206126988
 20
25.8285218006038
 10
-18.94828206126988
 20
26.41185513393731
  0
LWPOLYLINE
  5
1B3
330
1F
100
AcDbEntity
  8
10TNR-01
  6
Continuous
 62
     7
 60
     1
100
AcDbPolyline
 90
        3
 70
     0
 43
0.0
 10
-9.70137350723945
 20
-5.0649793594653
 10
-10.86804017390615
 20
-5.0649793594653
 10
-10.28470684057275
 20
-8.5649793594653
  0
ARC
  5
1B4
330
1F
100
AcDbEntity
  8
1
  6
Continuous
 62
     7
100
AcDbCircle
 10
-48.44828206126984
 20
1.9350206405347
 30
0.0
 40
0.5
100
AcDbArc
 50
90.0
 51
180.0
  0
ARC
  5
1B5
330
1F
100
AcDbEntity
  8
1
  6
Continuous
 62
     7
100
AcDbCircle
 10
-48.44828206126984
 20
-5.0649793594653
 30
0.0
 40
0.5
100
AcDbArc
 50
180.0
 51
-90.0
  0
HATCH
  5
1B6
330
1F
100
AcDbEntity
  8
1
  6
Continuous
 62
     3
100
AcDbHatch
 10
0.0
 20
0.0
 30
0.0
210
0.0
220
0.0
230
1.0
  2
SOLID
 70
     1
 71
     1
 91
        2
 92
        1
 93
        8
 72
     1
 10
61.34726258689075
 20
15.4688987013794
 11
61.34726258689075
 21
-19.5311012986206
 72
     2
 10
58.84726258689075
 20
-19.5311012986206
 40
2.5
 50
0.0
 51
90.0
 73
     0
 72
     1
 10
58.84726258689075
 20
-22.0311012986206
 11
13.84726258689064
 21
-22.0311012986206
 72
     2
 10
13.84726258689064
 20
-19.5311012986206
 40
2.5
 50
90.0
 51
180.0
 73
     0
 72
     1
 10
11.34726258689064
 20
-19.5311012986206
 11
11.34726258689064
 21
15.4688987013794
 72
     2
 10
13.84726258689064
 20
15.4688987013794
 40
2.499999999999998
 50
180.0
 51
270.0
 73
     0
 72
     1
 10
13.84726258689064
 20
17.9688987013794
 11
58.84726258689075
 21
17.9688987013794
 72
     2
 10
58.84726258689075
 20
15.4688987013794
 40
2.5
 50
270.0
 51
360.0
 73
     0
 97
        8
330
D3
330
193
330
D0
330
190
330
D1
330
191
330
D2
330
192
 92
       16
 93
        8
 72
     2
 10
14.34726258689064
 20
-19.0311012986206
 40
1.0
 50
180.0
 51
270.0
 73
     1
 72
     1
 10
14.34726258689064
 20
-20.0311012986206
 11
58.34726258689075
 21
-20.0311012986206
 72
     2
 10
58.34726258689075
 20
-19.0311012986206
 40
1.0
 50
270.0
 51
360.0
 73
     1
 72
     1
 10
59.34726258689075
 20
-19.0311012986206
 11
59.34726258689075
 21
14.9688987013794
 72
     2
 10
58.34726258689075
 20
14.9688987013794
 40
1.0
 50
0.0
 51
90.0
 73
     1
 72
     1
 10
58.34726258689075
 20
15.9688987013794
 11
14.34726258689064
 21
15.9688987013794
 72
     2
 10
14.34726258689064
 20
14.9688987013794
 40
1.0
 50
90.0
 51
180.0
 73
     1
 72
     1
 10
13.34726258689064
 20
14.9688987013794
 11
13.34726258689064
 21
-19.0311012986206
 97
        8
330
131
330
3A
330
132
330
53
330
133
330
54
330
134
330
52
 75
     0
 76
     1
 98
        1
 10
0.0
 20
0.0
  0
HATCH
  5
1B7
330
1F
100
AcDbEntity
  8
1
  6
Continuous
 62
     3
100
AcDbHatch
 10
0.0
 20
0.0
 30
0.0
210
0.0
220
0.0
230
1.0
  2
SOLID
 70
     1
 71
     1
 91
        1
 92
        1
 93
       22
 72
     1
 10
-30.19828206126988
 20
32.68502064053467
 11
-30.19828206126988
 21
20.6850206405347
 72
     1
 10
-30.19828206126988
 20
20.6850206405347
 11
-32.19828206126999
 21
20.6850206405347
 72
     1
 10
-32.19828206126999
 20
20.6850206405347
 11
-32.19828206126988
 21
32.68502064053467
 72
     2
 10
-32.69828206126988
 20
32.68502064053467
 40
0.5
 50
0.0
 51
90.0
 73
     1
 72
     1
 10
-32.69828206126988
 20
33.18502064053467
 11
-72.69828206126992
 21
33.18502064053487
 72
     2
 10
-72.69828206126992
 20
32.68502064053467
 40
0.5000000000002061
 50
90.0
 51
179.9999999999764
 73
     1
 72
     1
 10
-73.19828206126992
 20
32.68502064053487
 11
-73.19828206126992
 21
7.685020640534788
 72
     2
 10
-72.69828206126992
 20
7.685020640534788
 40
0.5
 50
180.0
 51
270.0
 73
     1
 72
     1
 10
-72.69828206126992
 20
7.185020640534788
 11
-50.44828206127004
 21
7.185020640534788
 72
     1
 10
-50.44828206127004
 20
7.185020640534788
 11
-32.69828206126988
 21
7.185020640534788
 72
     2
 10
-32.69828206126988
 20
7.685020640534788
 40
0.5
 50
270.0
 51
360.0
 73
     1
 72
     1
 10
-32.19828206126988
 20
7.685020640534788
 11
-32.19828206126988
 21
19.6850206405347
 72
     1
 10
-32.19828206126988
 20
19.6850206405347
 11
-30.19828206126988
 21
19.6850206405347
 72
     1
 10
-30.19828206126988
 20
19.6850206405347
 11
-30.19828206126988
 21
7.685020640534788
 72
     2
 10
-32.69828206126988
 20
7.685020640534788
 40
2.499999999999886
 50
0.0
 51
90.0
 73
     0
 72
     1
 10
-32.69828206126988
 20
5.185020640534901
 11
-45.44828206127004
 21
5.185020640534901
 72
     1
 10
-45.44828206127004
 20
5.185020640534901
 11
-72.69828206126984
 21
5.185020640534901
 72
     2
 10
-72.69828206126992
 20
7.685020640534788
 40
2.5
 50
89.99999999999805
 51
180.0000000000026
 73
     0
 72
     1
 10
-75.19828206126992
 20
7.685020640534901
 11
-75.19828206126992
 21
32.68502064053467
 72
     2
 10
-72.69828206126992
 20
32.68502064053467
 40
2.5
 50
180.0
 51
270.0
 73
     0
 72
     1
 10
-72.69828206126992
 20
35.18502064053467
 11
-32.69828206126988
 21
35.18502064053467
 72
     2
 10
-32.69828206126988
 20
32.68502064053467
 40
2.5
 50
270.0
 51
360.0
 73
     0
 97
       22
330
71
330
151
330
72
330
152
330
38
330
73
330
153
330
74
330
75
330
76
330
154
330
39
330
77
330
155
330
6C
330
14E
330
6D
330
14F
330
6E
330
6F
330
70
330
150
 75
     0
 76
     1
 98
        1
 10
0.0
 20
0.0
  0
ENDSEC
  0
SECTION
  2
OBJECTS
  0
DICTIONARY
  5
C
330
0
100
AcDbDictionary
281
     1
  3
ACAD_GROUP
350
D
  3
ACAD_LAYOUT
350
1A
  3
ACAD_MLINESTYLE
350
17
  3
ACAD_PLOTSETTINGS
350
19
  3
ACAD_PLOTSTYLENAME
350
E
  0
DICTIONARY
  5
D
102
{ACAD_REACTORS
330
C
102
}
330
C
100
AcDbDictionary
281
     1
  0
DICTIONARY
  5
1A
102
{ACAD_REACTORS
330
C
102
}
330
C
100
AcDbDictionary
281
     1
  3
Layout1
350
1E
  3
Layout2
350
26
  3
Model
350
22
  0
DICTIONARY
  5
17
102
{ACAD_REACTORS
330
C
102
}
330
C
100
AcDbDictionary
281
     1
  3
Standard
350
18
  0
DICTIONARY
  5
19
102
{ACAD_REACTORS
330
C
102
}
330
C
100
AcDbDictionary
281
     1
  0
ACDBDICTIONARYWDFLT
  5
E
102
{ACAD_REACTORS
330
C
102
}
330
C
100
AcDbDictionary
281
     1
  3
Normal
350
F
100
AcDbDictionaryWithDefault
340
F
  0
LAYOUT
  5
1E
102
{ACAD_REACTORS
330
1A
102
}
330
1A
100
AcDbPlotSettings
  1

  2

  4

  6

 40
0.0
 41
0.0
 42
0.0
 43
0.0
 44
0.0
 45
0.0
 46
0.0
 47
0.0
 48
0.0
 49
0.0
140
0.0
141
0.0
142
1.0
143
1.0
 70
   688
 72
     0
 73
     0
 74
     5
  7

 75
    16
 76
     0
 77
     2
 78
   300
147
1.0
148
0.0
149
0.0
100
AcDbLayout
  1
Layout1
 70
     1
 71
     1
 10
0.0
 20
0.0
 11
0.0
 21
0.0
 12
0.0
 22
0.0
 32
0.0
 14
0.0
 24
0.0
 34
0.0
 15
0.0
 25
0.0
 35
0.0
146
0.0
 13
0.0
 23
0.0
 33
0.0
 16
1.0
 26
0.0
 36
0.0
 17
0.0
 27
1.0
 37
0.0
 76
     0
330
1B
  0
LAYOUT
  5
26
102
{ACAD_REACTORS
330
1A
102
}
330
1A
100
AcDbPlotSettings
  1

  2

  4

  6

 40
0.0
 41
0.0
 42
0.0
 43
0.0
 44
0.0
 45
0.0
 46
0.0
 47
0.0
 48
0.0
 49
0.0
140
0.0
141
0.0
142
1.0
143
1.0
 70
   688
 72
     0
 73
     0
 74
     5
  7

 75
    16
 76
     0
 77
     2
 78
   300
147
1.0
148
0.0
149
0.0
100
AcDbLayout
  1
Layout2
 70
     1
 71
     2
 10
0.0
 20
0.0
 11
0.0
 21
0.0
 12
0.0
 22
0.0
 32
0.0
 14
0.0
 24
0.0
 34
0.0
 15
0.0
 25
0.0
 35
0.0
146
0.0
 13
0.0
 23
0.0
 33
0.0
 16
1.0
 26
0.0
 36
0.0
 17
0.0
 27
1.0
 37
0.0
 76
     0
330
23
  0
LAYOUT
  5
22
102
{ACAD_REACTORS
330
1A
102
}
330
1A
100
AcDbPlotSettings
  1

  2

  4

  6

 40
0.0
 41
0.0
 42
0.0
 43
0.0
 44
0.0
 45
0.0
 46
0.0
 47
0.0
 48
0.0
 49
0.0
140
0.0
141
0.0
142
1.0
143
1.0
 70
  1712
 72
     0
 73
     0
 74
     0
  7

 75
     0
 76
     0
 77
     2
 78
   300
147
1.0
148
0.0
149
0.0
100
AcDbLayout
  1
Model
 70
     1
 71
     0
 10
0.0
 20
0.0
 11
0.0
 21
0.0
 12
0.0
 22
0.0
 32
0.0
 14
-83.94828206126992
 24
-32.34557357025462
 34
0.0
 15
93.05171793872991
 25
51.43502064053457
 35
0.0
146
0.0
 13
0.0
 23
0.0
 33
0.0
 16
1.0
 26
0.0
 36
0.0
 17
0.0
 27
1.0
 37
0.0
 76
     0
330
1F
  0
MLINESTYLE
  5
18
102
{ACAD_REACTORS
330
17
102
}
330
17
100
AcDbMlineStyle
  2
Standard
 70
     0
  3

 62
   256
 51
90.0
 52
90.0
 71
     2
 49
0.5
 62
   256
  6
BYLAYER
 49
-0.5
 62
   256
  6
BYLAYER
  0
ACDBPLACEHOLDER
  5
F
102
{ACAD_REACTORS
330
E
102
}
330
E
  0
ENDSEC
  0
EOF
