  0
SECTION
  2
HEADER
  9
$ACADVER
  1
AC1018
  9
$ACADMAINTVER
 70
     0
  9
$DWGCODEPAGE
  3
ANSI_1252
  9
$INSBASE
 10
0.0
 20
0.0
 30
0.0
  9
$EXTMIN
 10
-53.296202821994
 20
-40.0525101559498
 30
0.0
  9
$EXTMAX
 10
68.00378717800601
 20
42.879826
 30
0.0
  9
$LIMMIN
 10
0.0
 20
0.0
  9
$LIMMAX
 10
12.0
 20
9.0
  9
$ORTHOMODE
 70
     0
  9
$REGENMODE
 70
     1
  9
$FILLMODE
 70
     1
  9
$QTEXTMODE
 70
     0
  9
$MIRRTEXT
 70
     1
  9
$LTSCALE
 40
1.0
  9
$ATTMODE
 70
     1
  9
$TEXTSIZE
 40
0.2
  9
$TRACEWID
 40
0.05
  9
$TEXTSTYLE
  7
Standard
  9
$CLAYER
  8
0
  9
$CELTYPE
  6
ByLayer
  9
$CECOLOR
 62
   256
  9
$CELTSCALE
 40
1.0
  9
$DISPSILH
 70
     0
  9
$DIMSCALE
 40
1.0
  9
$DIMASZ
 40
0.18
  9
$DIMEXO
 40
0.0625
  9
$DIMDLI
 40
0.38
  9
$DIMRND
 40
0.0
  9
$DIMDLE
 40
0.0
  9
$DIMEXE
 40
0.18
  9
$DIMTP
 40
0.0
  9
$DIMTM
 40
0.0
  9
$DIMTXT
 40
0.18
  9
$DIMCEN
 40
0.09
  9
$DIMTSZ
 40
0.0
  9
$DIMTOL
 70
     0
  9
$DIMLIM
 70
     0
  9
$DIMTIH
 70
     1
  9
$DIMTOH
 70
     1
  9
$DIMSE1
 70
     0
  9
$DIMSE2
 70
     0
  9
$DIMTAD
 70
     0
  9
$DIMZIN
 70
     0
  9
$DIMBLK
  1

  9
$DIMASO
 70
     1
  9
$DIMSHO
 70
     1
  9
$DIMPOST
  1

  9
$DIMAPOST
  1

  9
$DIMALT
 70
     0
  9
$DIMALTD
 70
     2
  9
$DIMALTF
 40
25.4
  9
$DIMLFAC
 40
1.0
  9
$DIMTOFL
 70
     0
  9
$DIMTVP
 40
0.0
  9
$DIMTIX
 70
     0
  9
$DIMSOXD
 70
     0
  9
$DIMSAH
 70
     0
  9
$DIMBLK1
  1

  9
$DIMBLK2
  1

  9
$DIMSTYLE
  2
Standard
  9
$DIMCLRD
 70
     0
  9
$DIMCLRE
 70
     0
  9
$DIMCLRT
 70
     0
  9
$DIMTFAC
 40
1.0
  9
$DIMGAP
 40
0.09
  9
$DIMJUST
 70
     0
  9
$DIMSD1
 70
     0
  9
$DIMSD2
 70
     0
  9
$DIMTOLJ
 70
     1
  9
$DIMTZIN
 70
     0
  9
$DIMALTZ
 70
     0
  9
$DIMALTTZ
 70
     0
  9
$DIMUPT
 70
     0
  9
$DIMDEC
 70
     4
  9
$DIMTDEC
 70
     4
  9
$DIMALTU
 70
     2
  9
$DIMALTTD
 70
     2
  9
$DIMTXSTY
  7
Standard
  9
$DIMAUNIT
 70
     0
  9
$DIMADEC
 70
     0
  9
$DIMALTRND
 40
0.0
  9
$DIMAZIN
 70
     0
  9
$DIMDSEP
 70
    46
  9
$DIMATFIT
 70
     3
  9
$DIMFRAC
 70
     0
  9
$DIMLDRBLK
  1

  9
$DIMLUNIT
 70
     2
  9
$DIMLWD
 70
    -2
  9
$DIMLWE
 70
    -2
  9
$DIMTMOVE
 70
     0
  9
$LUNITS
 70
     2
  9
$LUPREC
 70
     4
  9
$SKETCHINC
 40
0.1
  9
$FILLETRAD
 40
0.5
  9
$AUNITS
 70
     0
  9
$AUPREC
 70
     0
  9
$MENU
  1
.
  9
$ELEVATION
 40
0.0
  9
$PELEVATION
 40
0.0
  9
$THICKNESS
 40
0.0
  9
$LIMCHECK
 70
     0
  9
$CHAMFERA
 40
0.5
  9
$CHAMFERB
 40
0.5
  9
$CHAMFERC
 40
1.0
  9
$CHAMFERD
 40
0.0
  9
$SKPOLY
 70
     0
  9
$TDCREATE
 40
2454483.381563947
  9
$TDUCREATE
 40
2454483.33989728
  9
$TDUPDATE
 40
2454483.381563958
  9
$TDUUPDATE
 40
2454483.339897292
  9
$TDINDWG
 40
0.0000000116
  9
$TDUSRTIMER
 40
0.0000000116
  9
$USRTIMER
 70
     1
  9
$ANGBASE
 50
0.0
  9
$ANGDIR
 70
     0
  9
$PDMODE
 70
     0
  9
$PDSIZE
 40
0.0
  9
$PLINEWID
 40
0.0
  9
$SPLFRAME
 70
     0
  9
$SPLINETYPE
 70
     6
  9
$SPLINESEGS
 70
     8
  9
$HANDSEED
  5
18E
  9
$SURFTAB1
 70
     6
  9
$SURFTAB2
 70
     6
  9
$SURFTYPE
 70
     6
  9
$SURFU
 70
     6
  9
$SURFV
 70
     6
  9
$UCSBASE
  2

  9
$UCSNAME
  2

  9
$UCSORG
 10
0.0
 20
0.0
 30
0.0
  9
$UCSXDIR
 10
1.0
 20
0.0
 30
0.0
  9
$UCSYDIR
 10
0.0
 20
1.0
 30
0.0
  9
$UCSORTHOREF
  2

  9
$UCSORTHOVIEW
 70
     0
  9
$UCSORGTOP
 10
0.0
 20
0.0
 30
0.0
  9
$UCSORGBOTTOM
 10
0.0
 20
0.0
 30
0.0
  9
$UCSORGLEFT
 10
0.0
 20
0.0
 30
0.0
  9
$UCSORGRIGHT
 10
0.0
 20
0.0
 30
0.0
  9
$UCSORGFRONT
 10
0.0
 20
0.0
 30
0.0
  9
$UCSORGBACK
 10
0.0
 20
0.0
 30
0.0
  9
$PUCSBASE
  2

  9
$PUCSNAME
  2

  9
$PUCSORG
 10
0.0
 20
0.0
 30
0.0
  9
$PUCSXDIR
 10
1.0
 20
0.0
 30
0.0
  9
$PUCSYDIR
 10
0.0
 20
1.0
 30
0.0
  9
$PUCSORTHOREF
  2

  9
$PUCSORTHOVIEW
 70
     0
  9
$PUCSORGTOP
 10
0.0
 20
0.0
 30
0.0
  9
$PUCSORGBOTTOM
 10
0.0
 20
0.0
 30
0.0
  9
$PUCSORGLEFT
 10
0.0
 20
0.0
 30
0.0
  9
$PUCSORGRIGHT
 10
0.0
 20
0.0
 30
0.0
  9
$PUCSORGFRONT
 10
0.0
 20
0.0
 30
0.0
  9
$PUCSORGBACK
 10
0.0
 20
0.0
 30
0.0
  9
$USERI1
 70
     0
  9
$USERI2
 70
     0
  9
$USERI3
 70
     0
  9
$USERI4
 70
     0
  9
$USERI5
 70
     0
  9
$USERR1
 40
14.5
  9
$USERR2
 40
0.0
  9
$USERR3
 40
0.0
  9
$USERR4
 40
0.0
  9
$USERR5
 40
0.0
  9
$WORLDVIEW
 70
     1
  9
$SHADEDGE
 70
     3
  9
$SHADEDIF
 70
    70
  9
$TILEMODE
 70
     1
  9
$MAXACTVP
 70
    64
  9
$PINSBASE
 10
0.0
 20
0.0
 30
0.0
  9
$PLIMCHECK
 70
     0
  9
$PEXTMIN
 10
1.00000000000000E+20
 20
1.00000000000000E+20
 30
1.00000000000000E+20
  9
$PEXTMAX
 10
-1.00000000000000E+20
 20
-1.00000000000000E+20
 30
-1.00000000000000E+20
  9
$PLIMMIN
 10
0.0
 20
0.0
  9
$PLIMMAX
 10
12.0
 20
9.0
  9
$UNITMODE
 70
     0
  9
$VISRETAIN
 70
     1
  9
$PLINEGEN
 70
     0
  9
$PSLTSCALE
 70
     1
  9
$TREEDEPTH
 70
  3020
  9
$CMLSTYLE
  2
Standard
  9
$CMLJUST
 70
     0
  9
$CMLSCALE
 40
1.0
  9
$PROXYGRAPHICS
 70
     1
  9
$MEASUREMENT
 70
     1
  9
$CELWEIGHT
370
    -1
  9
$ENDCAPS
280
     0
  9
$JOINSTYLE
280
     0
  9
$LWDISPLAY
290
     0
  9
$INSUNITS
 70
     1
  9
$HYPERLINKBASE
  1

  9
$STYLESHEET
  1

  9
$XEDIT
290
     1
  9
$CEPSNTYPE
380
     0
  9
$PSTYLEMODE
290
     1
  9
$FINGERPRINTGUID
  2
{31EE8071-ADCA-415A-8604-6B866EA79F09}
  9
$VERSIONGUID
  2
{FAEB1C32-E019-11D5-929B-00C0DF256EC4}
  9
$EXTNAMES
290
     1
  9
$PSVPSCALE
 40
0.0
  9
$OLESTARTUP
290
     0
  9
$SORTENTS
280
   127
  9
$INDEXCTL
280
     0
  9
$HIDETEXT
280
     1
  9
$XCLIPFRAME
290
     0
  9
$HALOGAP
280
     0
  9
$OBSCOLOR
 70
   257
  9
$OBSLTYPE
280
     0
  9
$INTERSECTIONDISPLAY
280
     0
  9
$INTERSECTIONCOLOR
 70
   257
  9
$DIMASSOC
280
     2
  9
$PROJECTNAME
  1

  0
ENDSEC
  0
SECTION
  2
CLASSES
  0
CLASS
  1
ACDBDICTIONARYWDFLT
  2
AcDbDictionaryWithDefault
  3
ObjectDBX Classes
 90
        0
 91
        3
280
     0
281
     0
  0
CLASS
  1

  2
exOdDbCircle
  3

 90
        0
 91
        3
280
     0
281
     1
  0
ENDSEC
  0
SECTION
  2
TABLES
  0
TABLE
  2
VPORT
  5
8
330
0
100
AcDbSymbolTable
 70
     1
  0
VPORT
  5
29
330
8
100
AcDbSymbolTableRecord
100
AcDbViewportTableRecord
  2
*Active
 70
     0
 10
0.0
 20
0.0
 11
1.0
 21
1.0
 12
7.353792178006
 22
1.4136579220251
 13
0.0
 23
0.0
 14
0.5
 24
0.5
 15
0.5
 25
0.5
 16
0.0
 26
0.0
 36
1.0
 17
0.0
 27
0.0
 37
0.0
 40
91.22556977154478
 41
1.60267857142857
 42
50.0
 43
0.0
 44
0.0
 50
0.0
 51
0.0
 71
     0
 72
   100
 73
     1
 74
     3
 75
     0
 76
     0
 77
     0
 78
     0
281
     0
 65
     1
110
0.0
120
0.0
130
0.0
111
1.0
121
0.0
131
0.0
112
0.0
122
1.0
132
0.0
 79
     0
146
0.0
  0
ENDTAB
  0
TABLE
  2
LTYPE
  5
5
330
0
100
AcDbSymbolTable
 70
     8
  0
LTYPE
  5
14
330
5
100
AcDbSymbolTableRecord
100
AcDbLinetypeTableRecord
  2
ByBlock
 70
     0
  3

 72
    65
 73
     0
 40
0.0
  0
LTYPE
  5
15
330
5
100
AcDbSymbolTableRecord
100
AcDbLinetypeTableRecord
  2
ByLayer
 70
     0
  3

 72
    65
 73
     0
 40
0.0
  0
LTYPE
  5
16
330
5
100
AcDbSymbolTableRecord
100
AcDbLinetypeTableRecord
  2
Continuous
 70
     0
  3
Solid line
 72
    65
 73
     0
 40
0.0
  0
LTYPE
  5
2A
330
5
100
AcDbSymbolTableRecord
100
AcDbLinetypeTableRecord
  2
DASHED
 70
     0
  3
Dashed
 72
    65
 73
     2
 40
15.0
 49
7.0
 74
     0
 49
-8.0
 74
     0
  0
LTYPE
  5
2B
330
5
100
AcDbSymbolTableRecord
100
AcDbLinetypeTableRecord
  2
DOTTED
 70
     0
  3
Dotted
 72
    65
 73
     2
 40
1.0
 49
0.0
 74
     0
 49
-1.0
 74
     0
  0
LTYPE
  5
2C
330
5
100
AcDbSymbolTableRecord
100
AcDbLinetypeTableRecord
  2
DOT_CENTER
 70
     0
  3
Dot_Center
 72
    65
 73
     4
 40
14.0
 49
12.0
 74
     0
 49
-1.0
 74
     0
 49
0.0
 74
     0
 49
-1.0
 74
     0
  0
LTYPE
  5
2D
330
5
100
AcDbSymbolTableRecord
100
AcDbLinetypeTableRecord
  2
LONG_DASHED
 70
     0
  3
Long_Dashed
 72
    65
 73
     2
 40
15.0
 49
10.0
 74
     0
 49
-5.0
 74
     0
  0
LTYPE
  5
2E
330
5
100
AcDbSymbolTableRecord
100
AcDbLinetypeTableRecord
  2
DASH_CENTER
 70
     0
  3
Dash_Center
 72
    65
 73
     4
 40
14.0
 49
11.0
 74
     0
 49
-1.0
 74
     0
 49
1.0
 74
     0
 49
-1.0
 74
     0
  0
LTYPE
  5
2F
330
5
100
AcDbSymbolTableRecord
100
AcDbLinetypeTableRecord
  2
PHANTOM
 70
     0
  3
Phantom
 72
    65
 73
     6
 40
13.0
 49
10.0
 74
     0
 49
-1.0
 74
     0
 49
0.0
 74
     0
 49
-1.0
 74
     0
 49
0.0
 74
     0
 49
-1.0
 74
     0
  0
LTYPE
  5
30
330
5
100
AcDbSymbolTableRecord
100
AcDbLinetypeTableRecord
  2
CENTER_DASH_DASH
 70
     0
  3
Center_Dash_Dash
 72
    65
 73
     6
 40
14.0
 49
9.0
 74
     0
 49
-1.0
 74
     0
 49
1.0
 74
     0
 49
-1.0
 74
     0
 49
1.0
 74
     0
 49
-1.0
 74
     0
  0
ENDTAB
  0
TABLE
  2
LAYER
  5
2
330
0
100
AcDbSymbolTable
 70
     3
  0
LAYER
  5
10
330
2
100
AcDbSymbolTableRecord
100
AcDbLayerTableRecord
  2
0
 70
     0
 62
     7
  6
Continuous
370
    -3
390
F
  0
LAYER
  5
31
330
2
100
AcDbSymbolTableRecord
100
AcDbLayerTableRecord
  2
1
 70
     0
 62
     7
  6
Continuous
370
    -3
390
F
  0
LAYER
  5
32
330
2
100
AcDbSymbolTableRecord
100
AcDbLayerTableRecord
  2
PV
 70
     0
 62
     7
  6
Continuous
370
    -3
390
F
  0
ENDTAB
  0
TABLE
  2
STYLE
  5
3
330
0
100
AcDbSymbolTable
 70
     1
  0
STYLE
  5
11
330
3
100
AcDbSymbolTableRecord
100
AcDbTextStyleTableRecord
  2
Standard
 70
     0
 40
0.0
 41
1.0
 50
0.0
 71
     0
 42
0.2
  3
txt
  4

  0
ENDTAB
  0
TABLE
  2
VIEW
  5
6
330
0
100
AcDbSymbolTable
 70
     0
  0
ENDTAB
  0
TABLE
  2
UCS
  5
7
330
0
100
AcDbSymbolTable
 70
     0
  0
ENDTAB
  0
TABLE
  2
APPID
  5
9
330
0
100
AcDbSymbolTable
 70
     1
  0
APPID
  5
12
330
9
100
AcDbSymbolTableRecord
100
AcDbRegAppTableRecord
  2
ACAD
 70
     0
  0
ENDTAB
  0
TABLE
  2
DIMSTYLE
  5
A
330
0
100
AcDbSymbolTable
 70
     1
100
AcDbDimStyleTable
  0
DIMSTYLE
105
27
330
A
100
AcDbSymbolTableRecord
100
AcDbDimStyleTableRecord
  2
Standard
 70
     0
340
11
  0
ENDTAB
  0
TABLE
  2
BLOCK_RECORD
  5
1
330
0
100
AcDbSymbolTable
 70
     1
  0
BLOCK_RECORD
  5
1F
330
1
100
AcDbSymbolTableRecord
100
AcDbBlockTableRecord
  2
*Model_Space
340
22
  0
BLOCK_RECORD
  5
1B
330
1
100
AcDbSymbolTableRecord
100
AcDbBlockTableRecord
  2
*Paper_Space
340
1E
  0
BLOCK_RECORD
  5
23
330
1
100
AcDbSymbolTableRecord
100
AcDbBlockTableRecord
  2
*Paper_Space0
340
26
  0
ENDTAB
  0
ENDSEC
  0
SECTION
  2
BLOCKS
  0
BLOCK
  5
20
330
1F
100
AcDbEntity
  8
0
100
AcDbBlockBegin
  2
*Model_Space
 70
     0
 71
     0
 10
0.0
 20
0.0
 30
0.0
  3
*Model_Space
  1

  0
ENDBLK
  5
21
330
1F
100
AcDbEntity
  8
0
100
AcDbBlockEnd
  0
BLOCK
  5
1C
330
1B
100
AcDbEntity
 67
     1
  8
0
100
AcDbBlockBegin
  2
*Paper_Space
 70
     0
 71
     0
 10
0.0
 20
0.0
 30
0.0
  3
*Paper_Space
  1

  0
ENDBLK
  5
1D
330
1B
100
AcDbEntity
 67
     1
  8
0
100
AcDbBlockEnd
  0
BLOCK
  5
24
330
23
100
AcDbEntity
  8
0
100
AcDbBlockBegin
  2
*Paper_Space0
 70
     0
 71
     0
 10
0.0
 20
0.0
 30
0.0
  3
*Paper_Space0
  1

  0
ENDBLK
  5
25
330
23
100
AcDbEntity
  8
0
100
AcDbBlockEnd
  0
ENDSEC
  0
SECTION
  2
ENTITIES
  0
LINE
  5
33
330
1F
100
AcDbEntity
  8
PV
  6
Continuous
 62
     7
100
AcDbLine
 10
-45.59620282199398
 20
39.879823
 30
0.0
 11
-50.29620282199399
 21
39.879823
 31
0.0
  0
LINE
  5
34
330
1F
100
AcDbEntity
  8
PV
  6
Continuous
 62
     7
100
AcDbLine
 10
-50.29620282199399
 20
39.879823
 30
0.0
 11
-50.296202821994
 21
38.379823
 31
0.0
  0
LINE
  5
35
330
1F
100
AcDbEntity
  8
PV
  6
Continuous
 62
     7
100
AcDbLine
 10
-50.296202821994
 20
38.379823
 30
0.0
 11
-53.296202821994
 21
38.379823
 31
0.0
  0
LINE
  5
36
330
1F
100
AcDbEntity
  8
PV
  6
Continuous
 62
     7
100
AcDbLine
 10
-52.796202821994
 20
33.879823
 30
0.0
 11
-45.59620282199398
 21
33.879823
 31
0.0
  0
LINE
  5
37
330
1F
100
AcDbEntity
  8
PV
  6
Continuous
 62
     7
100
AcDbLine
 10
-45.59620282199398
 20
33.879823
 30
0.0
 11
-45.59620282199398
 21
39.879823
 31
0.0
  0
LINE
  5
38
330
1F
100
AcDbEntity
  8
PV
  6
Continuous
 62
     7
100
AcDbLine
 10
-45.59620282199398
 20
31.379823
 30
0.0
 11
-50.296202821994
 21
31.379823
 31
0.0
  0
LINE
  5
39
330
1F
100
AcDbEntity
  8
PV
  6
Continuous
 62
     7
100
AcDbLine
 10
-50.296202821994
 20
31.379823
 30
0.0
 11
-50.296202821994
 21
29.979813
 31
0.0
  0
LINE
  5
3A
330
1F
100
AcDbEntity
  8
PV
  6
Continuous
 62
     7
100
AcDbLine
 10
-51.296202821994
 20
14.879823
 30
0.0
 11
-50.296202821994
 21
14.879823
 31
0.0
  0
LINE
  5
3B
330
1F
100
AcDbEntity
  8
PV
  6
Continuous
 62
     7
100
AcDbLine
 10
-50.296202821994
 20
14.879823
 30
0.0
 11
-50.296202821994
 21
13.129823
 31
0.0
  0
LINE
  5
3C
330
1F
100
AcDbEntity
  8
PV
  6
Continuous
 62
     7
100
AcDbLine
 10
-50.296202821994
 20
13.129823
 30
0.0
 11
-45.59620282199398
 21
13.129823
 31
0.0
  0
LINE
  5
3D
330
1F
100
AcDbEntity
  8
PV
  6
Continuous
 62
     7
100
AcDbLine
 10
-45.59620282199398
 20
10.62982300000001
 30
0.0
 11
-50.296202821994
 21
10.62982300000001
 31
0.0
  0
LINE
  5
3E
330
1F
100
AcDbEntity
  8
PV
  6
Continuous
 62
     7
100
AcDbLine
 10
-45.59620282199398
 20
13.129823
 30
0.0
 11
-45.59620282199398
 21
31.379823
 31
0.0
  0
LINE
  5
3F
330
1F
100
AcDbEntity
  8
PV
  6
Continuous
 62
     7
100
AcDbLine
 10
-45.59620282199398
 20
10.62982300000001
 30
0.0
 11
-45.59620282199398
 21
-7.620177
 31
0.0
  0
LINE
  5
40
330
1F
100
AcDbEntity
  8
PV
  6
Continuous
 62
     7
100
AcDbLine
 10
-50.296202821994
 20
10.62982300000001
 30
0.0
 11
-50.296202821994
 21
8.87982300000001
 31
0.0
  0
LINE
  5
41
330
1F
100
AcDbEntity
  8
PV
  6
Continuous
 62
     7
100
AcDbLine
 10
-50.296202821994
 20
8.87982300000001
 30
0.0
 11
-51.296202821994
 21
8.87982300000001
 31
0.0
  0
LINE
  5
42
330
1F
100
AcDbEntity
  8
PV
  6
Continuous
 62
     7
100
AcDbLine
 10
-50.296202821994
 20
-6.22017699999999
 30
0.0
 11
-50.296202821994
 21
-7.62017699999999
 31
0.0
  0
LINE
  5
43
330
1F
100
AcDbEntity
  8
PV
  6
Continuous
 62
     7
100
AcDbLine
 10
-50.296202821994
 20
-7.62017699999999
 30
0.0
 11
-45.59620282199398
 21
-7.620177
 31
0.0
  0
LINE
  5
44
330
1F
100
AcDbEntity
  8
PV
  6
Continuous
 62
     7
100
AcDbLine
 10
-45.59620282199398
 20
-10.120177
 30
0.0
 11
-52.796202821994
 21
-10.12017699999999
 31
0.0
  0
LINE
  5
45
330
1F
100
AcDbEntity
  8
PV
  6
Continuous
 62
     7
100
AcDbLine
 10
-50.296202821994
 20
-14.62017699999999
 30
0.0
 11
-53.296202821994
 21
-14.62017699999999
 31
0.0
  0
LINE
  5
46
330
1F
100
AcDbEntity
  8
PV
  6
Continuous
 62
     7
100
AcDbLine
 10
-45.59620282199398
 20
-10.120177
 30
0.0
 11
-45.59620282199398
 21
-16.12017699999999
 31
0.0
  0
LINE
  5
47
330
1F
100
AcDbEntity
  8
PV
  6
Continuous
 62
     7
100
AcDbLine
 10
-45.59620282199398
 20
-16.12017699999999
 30
0.0
 11
-50.296202821994
 21
-16.12017699999999
 31
0.0
  0
LINE
  5
48
330
1F
100
AcDbEntity
  8
PV
  6
Continuous
 62
     7
100
AcDbLine
 10
-50.296202821994
 20
-16.12017699999999
 30
0.0
 11
-50.296202821994
 21
-14.62017699999999
 31
0.0
  0
LINE
  5
49
330
1F
100
AcDbEntity
  8
PV
  6
Continuous
 62
     7
100
AcDbLine
 10
-51.29621282199398
 20
8.87982300000001
 30
0.0
 11
-52.79621282199398
 21
9.745853
 31
0.0
  0
LINE
  5
4A
330
1F
100
AcDbEntity
  8
PV
  6
Continuous
 62
     7
100
AcDbLine
 10
-51.296202821994
 20
14.879823
 30
0.0
 11
-52.796202821994
 21
14.013793
 31
0.0
  0
LINE
  5
4B
330
1F
100
AcDbEntity
  8
PV
  6
Continuous
 62
     7
100
AcDbLine
 10
-53.29620282199399
 20
42.879823
 30
0.0
 11
-53.296202821994
 21
38.379823
 31
0.0
  0
LINE
  5
4C
330
1F
100
AcDbEntity
  8
PV
  6
Continuous
 62
     7
100
AcDbLine
 10
-53.296202821994
 20
-14.62017699999999
 30
0.0
 11
-53.296202821994
 21
-19.12017699999999
 31
0.0
  0
LINE
  5
4D
330
1F
100
AcDbEntity
  8
PV
  6
Continuous
 62
     7
100
AcDbLine
 10
17.54579717800602
 20
41.397443
 30
0.0
 11
21.70373717800602
 21
25.879803
 31
0.0
  0
LINE
  5
4E
330
1F
100
AcDbEntity
  8
PV
  6
Continuous
 62
     7
100
AcDbLine
 10
15.61399717800602
 20
42.879823
 30
0.0
 11
-53.29620282199399
 21
42.879823
 31
0.0
  0
LINE
  5
4F
330
1F
100
AcDbEntity
  8
PV
  6
Continuous
 62
     7
100
AcDbLine
 10
21.703787178006
 20
25.879823
 30
0.0
 11
20.20374563109331
 21
25.879823
 31
0.0
  0
LINE
  5
50
330
1F
100
AcDbEntity
  8
PV
  6
Continuous
 62
     7
100
AcDbLine
 10
15.89993717800601
 20
30.379823
 30
0.0
 11
15.89993717800601
 21
28.879823
 31
0.0
  0
LINE
  5
51
330
1F
100
AcDbEntity
  8
PV
  6
Continuous
 62
     7
100
AcDbLine
 10
12.89993717800601
 20
30.379823
 30
0.0
 11
12.89993717800601
 21
28.879823
 31
0.0
  0
LINE
  5
52
330
1F
100
AcDbEntity
  8
PV
  6
Continuous
 62
     7
100
AcDbLine
 10
11.06863717800601
 20
31.046343
 30
0.0
 11
12.89991717800601
 21
30.379803
 31
0.0
  0
LINE
  5
53
330
1F
100
AcDbEntity
  8
PV
  6
Continuous
 62
     7
100
AcDbLine
 10
14.46295717800601
 20
39.879823
 30
0.0
 11
-8.29620782199399
 21
39.879823
 31
0.0
  0
LINE
  5
54
330
1F
100
AcDbEntity
  8
PV
  6
Continuous
 62
     7
100
AcDbLine
 10
15.57132717800601
 20
33.379823
 30
0.0
 11
11.69389717800602
 21
33.379823
 31
0.0
  0
LINE
  5
55
330
1F
100
AcDbEntity
  8
PV
  6
Continuous
 62
     7
100
AcDbLine
 10
15.26680717800602
 20
35.879823
 30
0.0
 11
11.69389717800602
 21
35.879823
 31
0.0
  0
LINE
  5
56
330
1F
100
AcDbEntity
  8
PV
  6
Continuous
 62
     7
100
AcDbLine
 10
11.69386717800602
 20
33.379823
 30
0.0
 11
11.06861717800601
 21
31.046353
 31
0.0
  0
LINE
  5
57
330
1F
100
AcDbEntity
  8
PV
  6
Continuous
 62
     7
100
AcDbLine
 10
9.27912717800601
 20
34.026853
 30
0.0
 11
8.66914717800601
 21
31.750413
 31
0.0
  0
LINE
  5
58
330
1F
100
AcDbEntity
  8
PV
  6
Continuous
 62
     7
100
AcDbLine
 10
12.89993717800601
 20
28.879823
 30
0.0
 11
-7.29620782199399
 21
28.879823
 31
0.0
  0
LINE
  5
59
330
1F
100
AcDbEntity
  8
PV
  6
Continuous
 62
     7
100
AcDbLine
 10
8.18615717800601
 20
31.379823
 30
0.0
 11
-8.29620782199399
 21
31.379823
 31
0.0
  0
LINE
  5
5A
330
1F
100
AcDbEntity
  8
PV
  6
Continuous
 62
     7
100
AcDbLine
 10
-7.29619582199399
 20
-16.525733
 30
0.0
 11
-4.99620882199399
 21
-16.120185
 31
0.0
  0
LINE
  5
5B
330
1F
100
AcDbEntity
  8
PV
  6
Continuous
 62
     7
100
AcDbLine
 10
-4.99621282199399
 20
-16.120177
 30
0.0
 11
-4.99621282199399
 21
-19.120177
 31
0.0
  0
LINE
  5
5C
330
1F
100
AcDbEntity
  8
PV
  6
Continuous
 62
     7
100
AcDbLine
 10
-0.29620782199399
 20
13.879823
 30
0.0
 11
-7.29620782199399
 21
13.879823
 31
0.0
  0
LINE
  5
5D
330
1F
100
AcDbEntity
  8
PV
  6
Continuous
 62
     7
100
AcDbLine
 10
-0.29620782199399
 20
1.379823
 30
0.0
 11
-2.79620782199399
 21
1.379823
 31
0.0
  0
LINE
  5
5E
330
1F
100
AcDbEntity
  8
PV
  6
Continuous
 62
     7
100
AcDbLine
 10
-0.29620782199399
 20
10.379823
 30
0.0
 11
-1.79620782199399
 21
10.379823
 31
0.0
  0
LINE
  5
5F
330
1F
100
AcDbEntity
  8
PV
  6
Continuous
 62
     7
100
AcDbLine
 10
-0.29620782199399
 20
7.379823
 30
0.0
 11
-1.79620782199399
 21
7.379823
 31
0.0
  0
LINE
  5
60
330
1F
100
AcDbEntity
  8
PV
  6
Continuous
 62
     7
100
AcDbLine
 10
-0.29620782199399
 20
13.879823
 30
0.0
 11
-0.29620782199399
 21
10.379823
 31
0.0
  0
LINE
  5
61
330
1F
100
AcDbEntity
  8
PV
  6
Continuous
 62
     7
100
AcDbLine
 10
-0.29620782199399
 20
7.379823
 30
0.0
 11
-0.29620782199399
 21
1.379823
 31
0.0
  0
LINE
  5
62
330
1F
100
AcDbEntity
  8
PV
  6
Continuous
 62
     7
100
AcDbLine
 10
-3.29620782199399
 20
1.879823
 30
0.0
 11
-3.29620782199399
 21
3.879823
 31
0.0
  0
LINE
  5
63
330
1F
100
AcDbEntity
  8
PV
  6
Continuous
 62
     7
100
AcDbLine
 10
-6.66679482199399
 20
4.782963
 30
0.0
 11
-3.29620782199399
 21
3.879823
 31
0.0
  0
LINE
  5
64
330
1F
100
AcDbEntity
  8
PV
  6
Continuous
 62
     7
100
AcDbLine
 10
-2.34215582199398
 20
11.879823
 30
0.0
 11
-1.79619782199399
 21
10.379823
 31
0.0
  0
LINE
  5
65
330
1F
100
AcDbEntity
  8
PV
  6
Continuous
 62
     7
100
AcDbLine
 10
-2.34215282199398
 20
5.879823
 30
0.0
 11
-1.79620082199399
 21
7.379823
 31
0.0
  0
LINE
  5
66
330
1F
100
AcDbEntity
  8
PV
  6
Continuous
 62
     7
100
AcDbLine
 10
-2.34215382199399
 20
11.879803
 30
0.0
 11
-6.92560682199398
 21
10.651693
 31
0.0
  0
LINE
  5
67
330
1F
100
AcDbEntity
  8
PV
  6
Continuous
 62
     7
100
AcDbLine
 10
-2.34216382199399
 20
5.879843
 30
0.0
 11
-6.92561582199399
 21
7.107953
 31
0.0
  0
LINE
  5
68
330
1F
100
AcDbEntity
  8
PV
  6
Continuous
 62
     7
100
AcDbLine
 10
-7.29620782199399
 20
28.879823
 30
0.0
 11
-7.29620782199399
 21
13.879823
 31
0.0
  0
LINE
  5
69
330
1F
100
AcDbEntity
  8
PV
  6
Continuous
 62
     7
100
AcDbLine
 10
-7.29620782199399
 20
10.168733
 30
0.0
 11
-7.29620782199399
 21
7.590913
 31
0.0
  0
LINE
  5
6A
330
1F
100
AcDbEntity
  8
PV
  6
Continuous
 62
     7
100
AcDbLine
 10
-7.29620782199399
 20
4.300003
 30
0.0
 11
-7.29620782199399
 21
-16.525725
 31
0.0
  0
LINE
  5
6B
330
1F
100
AcDbEntity
  8
PV
  6
Continuous
 62
     7
100
AcDbLine
 10
-32.99621482199399
 20
-19.120177
 30
0.0
 11
-53.296202821994
 21
-19.12017699999999
 31
0.0
  0
LINE
  5
6C
330
1F
100
AcDbEntity
  8
PV
  6
Continuous
 62
     7
100
AcDbLine
 10
-10.29620782199399
 20
-16.120177
 30
0.0
 11
-42.59620282199398
 21
-16.12017699999999
 31
0.0
  0
LINE
  5
6D
330
1F
100
AcDbEntity
  8
PV
  6
Continuous
 62
     7
100
AcDbLine
 10
-10.29620782199399
 20
39.379823
 30
0.0
 11
-10.29620782199399
 21
29.379823
 31
0.0
  0
LINE
  5
6E
330
1F
100
AcDbEntity
  8
PV
  6
Continuous
 62
     7
100
AcDbLine
 10
-42.59620282199398
 20
39.379823
 30
0.0
 11
-42.59620282199398
 21
29.379823
 31
0.0
  0
LINE
  5
6F
330
1F
100
AcDbEntity
  8
PV
  6
Continuous
 62
     7
100
AcDbLine
 10
-10.79620782199399
 20
39.879823
 30
0.0
 11
-25.79620282199399
 21
39.879823
 31
0.0
  0
LINE
  5
70
330
1F
100
AcDbEntity
  8
PV
  6
Continuous
 62
     7
100
AcDbLine
 10
-8.79620782199399
 20
39.379823
 30
0.0
 11
-8.79620782199399
 21
31.879823
 31
0.0
  0
LINE
  5
71
330
1F
100
AcDbEntity
  8
PV
  6
Continuous
 62
     7
100
AcDbLine
 10
-10.79620782199399
 20
28.879823
 30
0.0
 11
-25.79620282199399
 21
28.879823
 31
0.0
  0
LINE
  5
72
330
1F
100
AcDbEntity
  8
PV
  6
Continuous
 62
     7
100
AcDbLine
 10
-10.79620782199399
 20
27.379823
 30
0.0
 11
-42.09620282199398
 21
27.379823
 31
0.0
  0
LINE
  5
73
330
1F
100
AcDbEntity
  8
PV
  6
Continuous
 62
     7
100
AcDbLine
 10
-10.79620782199399
 20
1.679823
 30
0.0
 11
-42.09620282199398
 21
1.67982300000001
 31
0.0
  0
LINE
  5
74
330
1F
100
AcDbEntity
  8
PV
  6
Continuous
 62
     7
100
AcDbLine
 10
-10.79620782199399
 20
0.179823
 30
0.0
 11
-42.09620282199398
 21
0.17982300000001
 31
0.0
  0
LINE
  5
75
330
1F
100
AcDbEntity
  8
PV
  6
Continuous
 62
     7
100
AcDbLine
 10
-42.59620282199398
 20
26.879823
 30
0.0
 11
-42.59620282199398
 21
22.379823
 31
0.0
  0
LINE
  5
76
330
1F
100
AcDbEntity
  8
PV
  6
Continuous
 62
     7
100
AcDbLine
 10
-42.59620282199398
 20
-0.32017699999999
 30
0.0
 11
-42.59620282199398
 21
-16.12017699999999
 31
0.0
  0
LINE
  5
77
330
1F
100
AcDbEntity
  8
PV
  6
Continuous
 62
     7
100
AcDbLine
 10
-10.29620782199399
 20
-0.320177
 30
0.0
 11
-10.29620782199399
 21
-6.620177
 31
0.0
  0
LINE
  5
78
330
1F
100
AcDbEntity
  8
PV
  6
Continuous
 62
     7
100
AcDbLine
 10
-10.29620782199399
 20
26.879823
 30
0.0
 11
-10.29620782199399
 21
2.179823
 31
0.0
  0
LINE
  5
79
330
1F
100
AcDbEntity
  8
PV
  6
Continuous
 62
     7
100
AcDbLine
 10
-42.59620282199398
 20
8.67982300000001
 30
0.0
 11
-41.475492821994
 21
8.12848300000001
 31
0.0
  0
LINE
  5
7A
330
1F
100
AcDbEntity
  8
PV
  6
Continuous
 62
     7
100
AcDbLine
 10
-42.59620282199398
 20
6.67982300000001
 30
0.0
 11
-41.475492821994
 21
7.23118300000001
 31
0.0
  0
LINE
  5
7B
330
1F
100
AcDbEntity
  8
PV
  6
Continuous
 62
     7
100
AcDbLine
 10
-42.59620282199398
 20
22.379823
 30
0.0
 11
-41.47547282199399
 21
21.828463
 31
0.0
  0
LINE
  5
7C
330
1F
100
AcDbEntity
  8
PV
  6
Continuous
 62
     7
100
AcDbLine
 10
-42.59620282199398
 20
20.379823
 30
0.0
 11
-41.475492821994
 21
20.931183
 31
0.0
  0
LINE
  5
7D
330
1F
100
AcDbEntity
  8
PV
  6
Continuous
 62
     7
100
AcDbLine
 10
-42.59620282199398
 20
20.379823
 30
0.0
 11
-42.59620282199398
 21
8.67982300000001
 31
0.0
  0
LINE
  5
7E
330
1F
100
AcDbEntity
  8
PV
  6
Continuous
 62
     7
100
AcDbLine
 10
-42.59620282199398
 20
6.67982300000001
 30
0.0
 11
-42.59620282199398
 21
2.17982300000001
 31
0.0
  0
LINE
  5
7F
330
1F
100
AcDbEntity
  8
PV
  6
Continuous
 62
     7
100
AcDbLine
 10
-12.29620782199399
 20
-7.156077
 30
0.0
 11
-12.29620782199399
 21
-8.620177
 31
0.0
  0
LINE
  5
80
330
1F
100
AcDbEntity
  8
PV
  6
Continuous
 62
     7
100
AcDbLine
 10
-10.29620782199399
 20
-8.620177
 30
0.0
 11
-12.29620782199399
 21
-8.620177
 31
0.0
  0
LINE
  5
81
330
1F
100
AcDbEntity
  8
PV
  6
Continuous
 62
     7
100
AcDbLine
 10
-10.29620782199399
 20
-10.620177
 30
0.0
 11
-12.29620782199399
 21
-10.620177
 31
0.0
  0
LINE
  5
82
330
1F
100
AcDbEntity
  8
PV
  6
Continuous
 62
     7
100
AcDbLine
 10
-10.29621182199399
 20
-12.620165
 30
0.0
 11
-12.29620082199399
 21
-12.084268
 31
0.0
  0
LINE
  5
83
330
1F
100
AcDbEntity
  8
PV
  6
Continuous
 62
     7
100
AcDbLine
 10
-10.29621682199398
 20
-6.620167
 30
0.0
 11
-12.29622082199398
 21
-7.156067
 31
0.0
  0
LINE
  5
84
330
1F
100
AcDbEntity
  8
PV
  6
Continuous
 62
     7
100
AcDbLine
 10
-12.29620782199399
 20
-10.620177
 30
0.0
 11
-12.29620782199399
 21
-12.084273
 31
0.0
  0
LINE
  5
85
330
1F
100
AcDbEntity
  8
PV
  6
Continuous
 62
     7
100
AcDbLine
 10
-10.29620782199399
 20
-8.620177
 30
0.0
 11
-10.29620782199399
 21
-10.620177
 31
0.0
  0
LINE
  5
86
330
1F
100
AcDbEntity
  8
PV
  6
Continuous
 62
     7
100
AcDbLine
 10
-10.29620782199399
 20
-12.620177
 30
0.0
 11
-10.29620782199399
 21
-16.120177
 31
0.0
  0
LINE
  5
87
330
1F
100
AcDbEntity
  8
PV
  6
Continuous
 62
     7
100
AcDbLine
 10
19.33772717800601
 20
27.379823
 30
0.0
 11
20.20374563109331
 21
25.879823
 31
0.0
  0
LINE
  5
88
330
1F
100
AcDbEntity
  8
PV
  6
Continuous
 62
     7
100
AcDbLine
 10
16.73967717800602
 20
28.879823
 30
0.0
 11
15.89993717800601
 21
28.879823
 31
0.0
  0
LINE
  5
89
330
1F
100
AcDbEntity
  8
PV
  6
Continuous
 62
     7
100
AcDbLine
 10
17.50317717800601
 20
31.897463
 30
0.0
 11
17.73121717800601
 21
31.046353
 31
0.0
  0
LINE
  5
8A
330
1F
100
AcDbEntity
  8
PV
  6
Continuous
 62
     7
100
AcDbLine
 10
15.89993717800601
 20
30.379823
 30
0.0
 11
17.731187178006
 21
31.046343
 31
0.0
  0
LINE
  5
8B
330
1F
100
AcDbEntity
  8
PV
  6
Continuous
 62
     7
100
AcDbLine
 10
-26.29620282199399
 20
39.379823
 30
0.0
 11
-26.29620282199399
 21
29.379823
 31
0.0
  0
LINE
  5
8C
330
1F
100
AcDbEntity
  8
PV
  6
Continuous
 62
     7
100
AcDbLine
 10
-27.79620282199399
 20
39.379823
 30
0.0
 11
-27.79620282199399
 21
29.379823
 31
0.0
  0
LINE
  5
8D
330
1F
100
AcDbEntity
  8
PV
  6
Continuous
 62
     7
100
AcDbLine
 10
-28.29620282199399
 20
39.879823
 30
0.0
 11
-42.09620282199398
 21
39.879823
 31
0.0
  0
LINE
  5
8E
330
1F
100
AcDbEntity
  8
PV
  6
Continuous
 62
     7
100
AcDbLine
 10
-28.29620282199399
 20
28.879823
 30
0.0
 11
-42.09620282199398
 21
28.879823
 31
0.0
  0
LINE
  5
8F
330
1F
100
AcDbEntity
  8
PV
  6
Continuous
 62
     7
100
AcDbLine
 10
14.94592717800602
 20
39.509213
 30
0.0
 11
15.74977717800601
 21
36.509213
 31
0.0
  0
LINE
  5
90
330
1F
100
AcDbEntity
  8
PV
  6
Continuous
 62
     7
100
AcDbLine
 10
-52.796202821994
 20
33.879823
 30
0.0
 11
-52.796202821994
 21
30.861313
 31
0.0
  0
LINE
  5
91
330
1F
100
AcDbEntity
  8
PV
  6
Continuous
 62
     7
100
AcDbLine
 10
-52.796202821994
 20
14.013793
 30
0.0
 11
-52.796202821994
 21
9.745833
 31
0.0
  0
LINE
  5
92
330
1F
100
AcDbEntity
  8
PV
  6
Continuous
 62
     7
100
AcDbLine
 10
-52.796202821994
 20
-10.12017699999999
 30
0.0
 11
-52.796202821994
 21
-7.10165699999999
 31
0.0
  0
LINE
  5
93
330
1F
100
AcDbEntity
  8
PV
  6
Continuous
 62
     7
100
AcDbLine
 10
-50.296202821994
 20
29.979813
 30
0.0
 11
-51.26940282199399
 21
29.979813
 31
0.0
  0
LINE
  5
94
330
1F
100
AcDbEntity
  8
PV
  6
Continuous
 62
     7
100
AcDbLine
 10
-51.26940282199399
 20
29.979833
 30
0.0
 11
-52.79621282199398
 21
30.861313
 31
0.0
  0
LINE
  5
95
330
1F
100
AcDbEntity
  8
PV
  6
Continuous
 62
     7
100
AcDbLine
 10
-51.269432821994
 20
-6.22017699999999
 30
0.0
 11
-50.296202821994
 21
-6.22017699999999
 31
0.0
  0
LINE
  5
96
330
1F
100
AcDbEntity
  8
PV
  6
Continuous
 62
     7
100
AcDbLine
 10
-51.269432821994
 20
-6.22017699999999
 30
0.0
 11
-52.796202821994
 21
-7.10165699999999
 31
0.0
  0
LINE
  5
97
330
1F
100
AcDbEntity
  8
1
  6
DASHED
 62
     2
100
AcDbLine
 10
-14.91064603495413
 20
-31.12017700000001
 30
0.0
 11
-14.91064603495413
 21
-26.12017700000001
 31
0.0
  0
LINE
  5
98
330
1F
100
AcDbEntity
  8
1
  6
Continuous
 62
     7
100
AcDbLine
 10
-16.99621482199399
 20
-24.37017700000001
 30
0.0
 11
-16.99621482199399
 21
-24.62017700000001
 31
0.0
  0
LINE
  5
99
330
1F
100
AcDbEntity
  8
1
  6
DASHED
 62
     2
100
AcDbLine
 10
-14.91064603495413
 20
-26.12017700000001
 30
0.0
 11
-16.99621482199399
 21
-24.37017700000001
 31
0.0
  0
LINE
  5
9A
330
1F
100
AcDbEntity
  8
1
  6
DASHED
 62
     2
100
AcDbLine
 10
-12.99621482199399
 20
-26.12017700000001
 30
0.0
 11
-14.91064603495413
 21
-26.12017700000001
 31
0.0
  0
LINE
  5
9B
330
1F
100
AcDbEntity
  8
1
  6
Continuous
 62
     7
100
AcDbLine
 10
-16.99621482199399
 20
-32.87017700000001
 30
0.0
 11
-16.99621482199399
 21
-35.12017700000001
 31
0.0
  0
LINE
  5
9C
330
1F
100
AcDbEntity
  8
1
  6
DASHED
 62
     2
100
AcDbLine
 10
-14.91064603495413
 20
-31.12017700000001
 30
0.0
 11
-16.99621482199399
 21
-32.87017700000001
 31
0.0
  0
LINE
  5
9D
330
1F
100
AcDbEntity
  8
1
  6
DASHED
 62
     2
100
AcDbLine
 10
-12.99621482199399
 20
-31.12017700000001
 30
0.0
 11
-14.91064603495413
 21
-31.12017700000001
 31
0.0
  0
LINE
  5
9E
330
1F
100
AcDbEntity
  8
1
  6
DASHED
 62
     2
100
AcDbLine
 10
-23.49621482199399
 20
-21.53460821296014
 30
0.0
 11
-28.49621482199399
 21
-21.53460821296014
 31
0.0
  0
LINE
  5
9F
330
1F
100
AcDbEntity
  8
1
  6
DASHED
 62
     2
100
AcDbLine
 10
-30.24621482199399
 20
-23.620177
 30
0.0
 11
-21.74621482199399
 21
-23.620177
 31
0.0
  0
LINE
  5
A0
330
1F
100
AcDbEntity
  8
1
  6
DASHED
 62
     2
100
AcDbLine
 10
-28.49621482199399
 20
-21.53460821296014
 30
0.0
 11
-30.24621482199399
 21
-23.620177
 31
0.0
  0
LINE
  5
A1
330
1F
100
AcDbEntity
  8
1
  6
DASHED
 62
     2
100
AcDbLine
 10
-28.49621482199399
 20
-19.120177
 30
0.0
 11
-28.49621482199399
 21
-21.53460821296014
 31
0.0
  0
LINE
  5
A2
330
1F
100
AcDbEntity
  8
1
  6
DASHED
 62
     2
100
AcDbLine
 10
-21.74621482199399
 20
-23.620177
 30
0.0
 11
-18.99621482199399
 21
-23.620177
 31
0.0
  0
LINE
  5
A3
330
1F
100
AcDbEntity
  8
1
  6
DASHED
 62
     2
100
AcDbLine
 10
-23.49621482199399
 20
-21.53460821296014
 30
0.0
 11
-21.74621482199399
 21
-23.620177
 31
0.0
  0
LINE
  5
A4
330
1F
100
AcDbEntity
  8
1
  6
DASHED
 62
     2
100
AcDbLine
 10
-23.49621482199399
 20
-19.120177
 30
0.0
 11
-23.49621482199399
 21
-21.53460821296014
 31
0.0
  0
LINE
  5
A5
330
1F
100
AcDbEntity
  8
1
  6
Continuous
 62
     7
100
AcDbLine
 10
-19.93403699550292
 20
-35.12017700000001
 30
0.0
 11
-16.99621482199399
 21
-35.12017700000001
 31
0.0
  0
LINE
  5
A6
330
1F
100
AcDbEntity
  8
1
  6
Continuous
 62
     7
100
AcDbLine
 10
-16.99621482199399
 20
-24.62017700000001
 30
0.0
 11
-16.99621482199399
 21
-32.87017700000001
 31
0.0
  0
LINE
  5
A7
330
1F
100
AcDbEntity
  8
1
  6
Continuous
 62
     7
100
AcDbLine
 10
-18.99621482199399
 20
-24.62017700000001
 30
0.0
 11
-16.99621482199399
 21
-24.62017700000001
 31
0.0
  0
LINE
  5
A8
330
1F
100
AcDbEntity
  8
1
  6
Continuous
 62
     7
100
AcDbLine
 10
-18.99621482199399
 20
-24.62017700000001
 30
0.0
 11
-18.99621482199399
 21
-31.620177
 31
0.0
  0
LINE
  5
A9
330
1F
100
AcDbEntity
  8
1
  6
DASHED
 62
     2
100
AcDbLine
 10
-25.99621482199399
 20
-24.62017700000001
 30
0.0
 11
-18.99621482199399
 21
-24.62017700000001
 31
0.0
  0
LINE
  5
AA
330
1F
100
AcDbEntity
  8
1
  6
Continuous
 62
     7
100
AcDbLine
 10
-16.99621482199399
 20
-35.12017700000001
 30
0.0
 11
-12.99621282199399
 21
-35.12017700000001
 31
0.0
  0
LINE
  5
AB
330
1F
100
AcDbEntity
  8
1
  6
Continuous
 62
     7
100
AcDbLine
 10
-16.99621482199399
 20
-22.12017700000001
 30
0.0
 11
-16.99621482199399
 21
-24.37017700000001
 31
0.0
  0
LINE
  5
AC
330
1F
100
AcDbEntity
  8
1
  6
Continuous
 62
     7
100
AcDbLine
 10
-12.99621282199399
 20
-22.120177
 30
0.0
 11
-16.99621482199399
 21
-22.12017700000001
 31
0.0
  0
LINE
  5
AD
330
1F
100
AcDbEntity
  8
1
  6
Continuous
 62
     7
100
AcDbLine
 10
-18.99621482199399
 20
-23.620177
 30
0.0
 11
-18.99621482199399
 21
-24.62017700000001
 31
0.0
  0
LINE
  5
AE
330
1F
100
AcDbEntity
  8
1
  6
Continuous
 62
     7
100
AcDbLine
 10
-32.99621482199399
 20
-23.620177
 30
0.0
 11
-32.99621482199399
 21
-31.62017700000001
 31
0.0
  0
LINE
  5
AF
330
1F
100
AcDbEntity
  8
1
  6
DASHED
 62
     2
100
AcDbLine
 10
-32.99621482199399
 20
-23.620177
 30
0.0
 11
-30.24621482199399
 21
-23.620177
 31
0.0
  0
LINE
  5
B0
330
1F
100
AcDbEntity
  8
1
  6
Continuous
 62
     7
100
AcDbLine
 10
-18.99621482199399
 20
-19.120177
 30
0.0
 11
-18.99621482199399
 21
-23.620177
 31
0.0
  0
LINE
  5
B1
330
1F
100
AcDbEntity
  8
1
  6
Continuous
 62
     7
100
AcDbLine
 10
-32.99621482199399
 20
-19.120177
 30
0.0
 11
-32.99621482199399
 21
-23.620177
 31
0.0
  0
LINE
  5
B2
330
1F
100
AcDbEntity
  8
1
  6
DOT_CENTER
 62
     2
100
AcDbLine
 10
-25.99621482199399
 20
7.37982299999999
 30
0.0
 11
-25.99621482199399
 21
-40.0525101559498
 31
0.0
  0
LINE
  5
B3
330
1F
100
AcDbEntity
  8
1
  6
DOT_CENTER
 62
     2
100
AcDbLine
 10
11.53512656700892
 20
-28.62017700000001
 30
0.0
 11
-18.49621482199399
 21
-28.62017700000001
 31
0.0
  0
LINE
  5
B4
330
1F
100
AcDbEntity
  8
1
  6
DOT_CENTER
 62
     2
100
AcDbLine
 10
-34.60996414479669
 20
-31.620177
 30
0.0
 11
-16.10301080278279
 21
-31.620177
 31
0.0
  0
LINE
  5
B5
330
1F
100
AcDbEntity
  8
PV
  6
Continuous
 62
     7
100
AcDbLine
 10
-4.99621282199399
 20
-19.120177
 30
0.0
 11
-18.99621482199399
 21
-19.120177
 31
0.0
  0
LINE
  5
B6
330
1F
100
AcDbEntity
  8
PV
  6
Continuous
 62
     7
100
AcDbLine
 10
-18.99621482199399
 20
-19.120177
 30
0.0
 11
-32.99621482199399
 21
-19.120177
 31
0.0
  0
LINE
  5
B7
330
1F
100
AcDbEntity
  8
0
  6
Continuous
 62
     7
100
AcDbLine
 10
-12.99621282199399
 20
-35.12017700000001
 30
0.0
 11
-12.99621282199399
 21
-36.12017699999998
 31
0.0
  0
LINE
  5
B8
330
1F
100
AcDbEntity
  8
0
  6
Continuous
 62
     7
100
AcDbLine
 10
16.00378717800601
 20
-24.120177
 30
0.0
 11
40.00378717800601
 21
-24.120177
 31
0.0
  0
LINE
  5
B9
330
1F
100
AcDbEntity
  8
0
  6
Continuous
 62
     7
100
AcDbLine
 10
62.85366717800601
 20
19.509213
 30
0.0
 11
62.049837178006
 21
22.50923299999999
 31
0.0
  0
LINE
  5
BA
330
1F
100
AcDbEntity
  8
0
  6
Continuous
 62
     7
100
AcDbLine
 10
35.00378717800601
 20
9.87980300000001
 30
0.0
 11
35.56378717800601
 21
8.842313
 31
0.0
  0
LINE
  5
BB
330
1F
100
AcDbEntity
  8
0
  6
Continuous
 62
     7
100
AcDbLine
 10
37.00378717800601
 20
9.87980300000001
 30
0.0
 11
36.44378717800601
 21
8.842313
 31
0.0
  0
LINE
  5
BC
330
1F
100
AcDbEntity
  8
0
  6
Continuous
 62
     7
100
AcDbLine
 10
24.703787178006
 20
9.879823
 30
0.0
 11
25.26379717800602
 21
8.84233299999999
 31
0.0
  0
LINE
  5
BD
330
1F
100
AcDbEntity
  8
0
  6
Continuous
 62
     7
100
AcDbLine
 10
26.703787178006
 20
9.879823
 30
0.0
 11
26.14378717800601
 21
8.842313
 31
0.0
  0
LINE
  5
BE
330
1F
100
AcDbEntity
  8
0
  6
Continuous
 62
     7
100
AcDbLine
 10
37.00378717800601
 20
9.879823
 30
0.0
 11
39.50378717800601
 21
9.879823
 31
0.0
  0
LINE
  5
BF
330
1F
100
AcDbEntity
  8
0
  6
Continuous
 62
     7
100
AcDbLine
 10
22.203787178006
 20
9.879823
 30
0.0
 11
24.703787178006
 21
9.879823
 31
0.0
  0
LINE
  5
C0
330
1F
100
AcDbEntity
  8
0
  6
Continuous
 62
     7
100
AcDbLine
 10
26.703787178006
 20
9.879823
 30
0.0
 11
35.00378717800601
 21
9.879823
 31
0.0
  0
LINE
  5
C1
330
1F
100
AcDbEntity
  8
0
  6
Continuous
 62
     7
100
AcDbLine
 10
11.30377717800601
 20
-22.120177
 30
0.0
 11
13.81288717800601
 21
-22.120177
 31
0.0
  0
LINE
  5
C2
330
1F
100
AcDbEntity
  8
0
  6
Continuous
 62
     7
100
AcDbLine
 10
16.00378717800601
 20
-22.120177
 30
0.0
 11
47.00378717800601
 21
-22.120177
 31
0.0
  0
LINE
  5
C3
330
1F
100
AcDbEntity
  8
0
  6
Continuous
 62
     7
100
AcDbLine
 10
11.30377717800601
 20
-19.220175
 30
0.0
 11
13.00378717800601
 21
-19.220179
 31
0.0
  0
LINE
  5
C4
330
1F
100
AcDbEntity
  8
0
  6
Continuous
 62
     7
100
AcDbLine
 10
16.00378717800601
 20
-19.220179
 30
0.0
 11
18.703787178006
 21
-19.220179
 31
0.0
  0
LINE
  5
C5
330
1F
100
AcDbEntity
  8
0
  6
Continuous
 62
     7
100
AcDbLine
 10
16.00378717800601
 20
-19.220179
 30
0.0
 11
16.00378717800601
 21
-22.120177
 31
0.0
  0
LINE
  5
C6
330
1F
100
AcDbEntity
  8
0
  6
Continuous
 62
     7
100
AcDbLine
 10
16.00378717800601
 20
-16.220179
 30
0.0
 11
17.703787178006
 21
-16.220179
 31
0.0
  0
LINE
  5
C7
330
1F
100
AcDbEntity
  8
0
  6
Continuous
 62
     7
100
AcDbLine
 10
11.30377717800601
 20
-16.220175
 30
0.0
 11
11.30377717800601
 21
-19.220179
 31
0.0
  0
LINE
  5
C8
330
1F
100
AcDbEntity
  8
0
  6
Continuous
 62
     7
100
AcDbLine
 10
9.30378717800602
 20
-16.220175
 30
0.0
 11
11.30377717800601
 21
-16.220175
 31
0.0
  0
LINE
  5
C9
330
1F
100
AcDbEntity
  8
0
  6
Continuous
 62
     7
100
AcDbLine
 10
9.30378717800602
 20
-0.120177
 30
0.0
 11
9.00378717800601
 21
-0.120177
 31
0.0
  0
LINE
  5
CA
330
1F
100
AcDbEntity
  8
0
  6
Continuous
 62
     7
100
AcDbLine
 10
21.703787178006
 20
-13.120177
 30
0.0
 11
21.703787178006
 21
-16.220179
 31
0.0
  0
LINE
  5
CB
330
1F
100
AcDbEntity
  8
0
  6
Continuous
 62
     7
100
AcDbLine
 10
23.703787178006
 20
-11.120177
 30
0.0
 11
23.703787178006
 21
-12.20061799999999
 31
0.0
  0
LINE
  5
CC
330
1F
100
AcDbEntity
  8
0
  6
Continuous
 62
     7
100
AcDbLine
 10
23.703787178006
 20
-8.039737
 30
0.0
 11
23.703787178006
 21
-9.120177
 31
0.0
  0
LINE
  5
CD
330
1F
100
AcDbEntity
  8
0
  6
Continuous
 62
     7
100
AcDbLine
 10
21.703787178006
 20
-13.120178
 30
0.0
 11
23.33319717800602
 21
-12.68358100000001
 31
0.0
  0
LINE
  5
CE
330
1F
100
AcDbEntity
  8
0
  6
Continuous
 62
     7
100
AcDbLine
 10
21.703787178006
 20
-7.120167
 30
0.0
 11
23.33319717800602
 21
-7.556767
 31
0.0
  0
LINE
  5
CF
330
1F
100
AcDbEntity
  8
0
  6
Continuous
 62
     7
100
AcDbLine
 10
23.703787178006
 20
-11.120177
 30
0.0
 11
22.996677178006
 21
-11.120177
 31
0.0
  0
LINE
  5
D0
330
1F
100
AcDbEntity
  8
0
  6
Continuous
 62
     7
100
AcDbLine
 10
23.703787178006
 20
-9.120177
 30
0.0
 11
22.996677178006
 21
-9.120177
 31
0.0
  0
LINE
  5
D1
330
1F
100
AcDbEntity
  8
0
  6
Continuous
 62
     7
100
AcDbLine
 10
22.496677178006
 20
-9.620177
 30
0.0
 11
22.496677178006
 21
-10.620177
 31
0.0
  0
LINE
  5
D2
330
1F
100
AcDbEntity
  8
0
  6
Continuous
 62
     7
100
AcDbLine
 10
40.00378717800601
 20
9.379823
 30
0.0
 11
40.00378717800601
 21
1.879823
 31
0.0
  0
LINE
  5
D3
330
1F
100
AcDbEntity
  8
0
  6
Continuous
 62
     7
100
AcDbLine
 10
21.93818717800602
 20
11.879823
 30
0.0
 11
39.54574717800601
 21
11.879823
 31
0.0
  0
LINE
  5
D4
330
1F
100
AcDbEntity
  8
0
  6
Continuous
 62
     7
100
AcDbLine
 10
19.203787178006
 20
9.404263
 30
0.0
 11
19.203787178006
 21
-1.52018699999999
 31
0.0
  0
LINE
  5
D5
330
1F
100
AcDbEntity
  8
0
  6
Continuous
 62
     7
100
AcDbLine
 10
21.703787178006
 20
9.379823
 30
0.0
 11
21.703787178006
 21
-7.120177
 31
0.0
  0
LINE
  5
D6
330
1F
100
AcDbEntity
  8
0
  6
Continuous
 62
     7
100
AcDbLine
 10
19.68251717800602
 20
22.293003
 30
0.0
 11
21.44578717800601
 21
12.29298300000001
 31
0.0
  0
LINE
  5
D7
330
1F
100
AcDbEntity
  8
0
  6
Continuous
 62
     7
100
AcDbLine
 10
10.00378717800601
 20
-33.12017699999998
 30
0.0
 11
40.00378717800601
 21
-33.12017699999998
 31
0.0
  0
LINE
  5
D8
330
1F
100
AcDbEntity
  8
0
  6
Continuous
 62
     7
100
AcDbLine
 10
50.00378717800601
 20
-36.12017699999998
 30
0.0
 11
-12.99621282199399
 21
-36.12017699999998
 31
0.0
  0
LINE
  5
D9
330
1F
100
AcDbEntity
  8
0
  6
Continuous
 62
     7
100
AcDbLine
 10
18.703787178006
 20
-11.120181
 30
0.0
 11
18.703787178006
 21
-15.220179
 31
0.0
  0
LINE
  5
DA
330
1F
100
AcDbEntity
  8
0
  6
Continuous
 62
     7
100
AcDbLine
 10
19.35022717800601
 20
-10.47372299999999
 30
0.0
 11
18.70376717800602
 21
-11.12016900000001
 31
0.0
  0
LINE
  5
DB
330
1F
100
AcDbEntity
  8
0
  6
Continuous
 62
     7
100
AcDbLine
 10
18.70376717800602
 20
-9.120177
 30
0.0
 11
19.35022717800601
 21
-9.766622
 31
0.0
  0
LINE
  5
DC
330
1F
100
AcDbEntity
  8
0
  6
Continuous
 62
     7
100
AcDbLine
 10
10.00378717800601
 20
-23.99367599999999
 30
0.0
 11
10.00378717800601
 21
-33.12017699999998
 31
0.0
  0
LINE
  5
DD
330
1F
100
AcDbEntity
  8
0
  6
Continuous
 62
     7
100
AcDbLine
 10
4.50378717800601
 20
-33.12017699999998
 30
0.0
 11
-9.49621282199399
 21
-33.12017699999998
 31
0.0
  0
LINE
  5
DE
330
1F
100
AcDbEntity
  8
0
  6
Continuous
 62
     7
100
AcDbLine
 10
5.69194717800602
 20
-31.95640699999998
 30
0.0
 11
6.00377717800602
 21
-33.12018699999999
 31
0.0
  0
LINE
  5
DF
330
1F
100
AcDbEntity
  8
0
  6
Continuous
 62
     7
100
AcDbLine
 10
4.815616178006
 20
-31.95639700000001
 30
0.0
 11
4.50377917800601
 21
-33.12017699999998
 31
0.0
  0
LINE
  5
E0
330
1F
100
AcDbEntity
  8
0
  6
Continuous
 62
     7
100
AcDbLine
 10
8.50378717800601
 20
-33.12017699999998
 30
0.0
 11
6.00378717800601
 21
-33.12017699999998
 31
0.0
  0
LINE
  5
E1
330
1F
100
AcDbEntity
  8
0
  6
Continuous
 62
     7
100
AcDbLine
 10
8.50378717800601
 20
-24.620177
 30
0.0
 11
8.50378717800601
 21
-33.12017699999998
 31
0.0
  0
LINE
  5
E2
330
1F
100
AcDbEntity
  8
0
  6
Continuous
 62
     7
100
AcDbLine
 10
9.41695717800601
 20
8.274473
 30
0.0
 11
18.61694717800601
 21
9.896683
 31
0.0
  0
LINE
  5
E3
330
1F
100
AcDbEntity
  8
0
  6
Continuous
 62
     7
100
AcDbLine
 10
11.301277178006
 20
-2.02018699999999
 30
0.0
 11
18.703787178006
 21
-2.02018699999999
 31
0.0
  0
LINE
  5
E4
330
1F
100
AcDbEntity
  8
0
  6
Continuous
 62
     7
100
AcDbLine
 10
9.00378717800601
 20
7.782073
 30
0.0
 11
9.00378717800601
 21
-0.120177
 31
0.0
  0
LINE
  5
E5
330
1F
100
AcDbEntity
  8
0
  6
Continuous
 62
     7
100
AcDbLine
 10
9.30378717800602
 20
-4.020177
 30
0.0
 11
17.703787178006
 21
-4.02017700000001
 31
0.0
  0
LINE
  5
E6
330
1F
100
AcDbEntity
  8
0
  6
Continuous
 62
     7
100
AcDbLine
 10
18.703787178006
 20
-5.02017700000001
 30
0.0
 11
18.703787178006
 21
-9.120177
 31
0.0
  0
LINE
  5
E7
330
1F
100
AcDbEntity
  8
0
  6
Continuous
 62
     7
100
AcDbLine
 10
9.30378717800602
 20
-16.220175
 30
0.0
 11
9.30378717800602
 21
-18.120177
 31
0.0
  0
LINE
  5
E8
330
1F
100
AcDbEntity
  8
0
  6
Continuous
 62
     7
100
AcDbLine
 10
9.30378717800602
 20
-2.120177
 30
0.0
 11
9.30378717800602
 21
-4.020177
 31
0.0
  0
LINE
  5
E9
330
1F
100
AcDbEntity
  8
0
  6
Continuous
 62
     7
100
AcDbLine
 10
9.30378717800602
 20
-18.120177
 30
0.0
 11
7.00378717800601
 21
-18.120177
 31
0.0
  0
LINE
  5
EA
330
1F
100
AcDbEntity
  8
0
  6
Continuous
 62
     7
100
AcDbLine
 10
9.30378717800602
 20
-2.120177
 30
0.0
 11
7.00378717800601
 21
-2.120177
 31
0.0
  0
LINE
  5
EB
330
1F
100
AcDbEntity
  8
0
  6
Continuous
 62
     7
100
AcDbLine
 10
16.00376717800601
 20
25.87980300000001
 30
0.0
 11
18.46855717800602
 21
11.90137300000001
 31
0.0
  0
LINE
  5
EC
330
1F
100
AcDbEntity
  8
0
  6
Continuous
 62
     7
100
AcDbLine
 10
7.003797178006
 20
9.879823
 30
0.0
 11
18.46856717800602
 21
11.90137300000001
 31
0.0
  0
LINE
  5
ED
330
1F
100
AcDbEntity
  8
0
  6
Continuous
 62
     7
100
AcDbLine
 10
7.00378717800601
 20
-18.120177
 30
0.0
 11
7.00378717800601
 21
-22.120177
 31
0.0
  0
LINE
  5
EE
330
1F
100
AcDbEntity
  8
0
  6
Continuous
 62
     7
100
AcDbLine
 10
8.50378717800601
 20
-24.620177
 30
0.0
 11
-2.14601982199399
 21
-24.620177
 31
0.0
  0
LINE
  5
EF
330
1F
100
AcDbEntity
  8
0
  6
Continuous
 62
     7
100
AcDbLine
 10
-2.628978821994
 20
-24.990771
 30
0.0
 11
-3.23895282199399
 21
-27.26723
 31
0.0
  0
LINE
  5
F0
330
1F
100
AcDbEntity
  8
0
  6
Continuous
 62
     7
100
AcDbLine
 10
-9.49621282199399
 20
-22.120177
 30
0.0
 11
-12.99621282199399
 21
-22.120177
 31
0.0
  0
LINE
  5
F1
330
1F
100
AcDbEntity
  8
0
  6
Continuous
 62
     7
100
AcDbLine
 10
-10.99622682199399
 20
-24.16613599999999
 30
0.0
 11
-10.33866882199399
 21
-26.620187
 31
0.0
  0
LINE
  5
F2
330
1F
100
AcDbEntity
  8
0
  6
Continuous
 62
     7
100
AcDbLine
 10
-4.99622482199399
 20
-24.16613699999999
 30
0.0
 11
-5.65377882199398
 21
-26.62017399999999
 31
0.0
  0
LINE
  5
F3
330
1F
100
AcDbEntity
  8
0
  6
Continuous
 62
     7
100
AcDbLine
 10
-4.99620882199399
 20
-24.166134
 30
0.0
 11
-6.49621282199399
 21
-23.620178
 31
0.0
  0
LINE
  5
F4
330
1F
100
AcDbEntity
  8
0
  6
Continuous
 62
     7
100
AcDbLine
 10
-10.99621982199399
 20
-24.16614300000001
 30
0.0
 11
-9.496215821994
 21
-23.62018499999999
 31
0.0
  0
LINE
  5
F5
330
1F
100
AcDbEntity
  8
0
  6
Continuous
 62
     7
100
AcDbLine
 10
-6.49621282199399
 20
-22.120177
 30
0.0
 11
-6.49621282199399
 21
-23.620177
 31
0.0
  0
LINE
  5
F6
330
1F
100
AcDbEntity
  8
0
  6
Continuous
 62
     7
100
AcDbLine
 10
-9.49621282199399
 20
-22.120177
 30
0.0
 11
-9.49621282199399
 21
-23.620177
 31
0.0
  0
LINE
  5
F7
330
1F
100
AcDbEntity
  8
0
  6
Continuous
 62
     7
100
AcDbLine
 10
-9.99621282199399
 20
-29.620177
 30
0.0
 11
-9.99621282199399
 21
-32.62017699999998
 31
0.0
  0
LINE
  5
F8
330
1F
100
AcDbEntity
  8
0
  6
Continuous
 62
     7
100
AcDbLine
 10
-5.65377082199399
 20
-29.120177
 30
0.0
 11
-9.49621282199399
 21
-29.120177
 31
0.0
  0
LINE
  5
F9
330
1F
100
AcDbEntity
  8
0
  6
Continuous
 62
     7
100
AcDbLine
 10
-5.65377082199399
 20
-26.620177
 30
0.0
 11
-10.338654821994
 21
-26.620177
 31
0.0
  0
LINE
  5
FA
330
1F
100
AcDbEntity
  8
0
  6
Continuous
 62
     7
100
AcDbLine
 10
7.00378717800601
 20
-22.120177
 30
0.0
 11
-6.49621282199399
 21
-22.120177
 31
0.0
  0
LINE
  5
FB
330
1F
100
AcDbEntity
  8
0
  6
Continuous
 62
     7
100
AcDbLine
 10
7.00378717800601
 20
9.879823
 30
0.0
 11
7.00378717800601
 21
-2.120177
 31
0.0
  0
LINE
  5
FC
330
1F
100
AcDbEntity
  8
0
  6
Continuous
 62
     7
100
AcDbLine
 10
55.45257717800601
 20
14.37982299999999
 30
0.0
 11
48.50378717800601
 21
14.379823
 31
0.0
  0
LINE
  5
FD
330
1F
100
AcDbEntity
  8
0
  6
Continuous
 62
     7
100
AcDbLine
 10
56.54551717800601
 20
17.026853
 30
0.0
 11
55.93553717800602
 21
14.750413
 31
0.0
  0
LINE
  5
FE
330
1F
100
AcDbEntity
  8
0
  6
Continuous
 62
     7
100
AcDbLine
 10
58.96031717800601
 20
16.37982299999999
 30
0.0
 11
58.33506717800601
 21
14.046353
 31
0.0
  0
LINE
  5
FF
330
1F
100
AcDbEntity
  8
0
  6
Continuous
 62
     7
100
AcDbLine
 10
58.33505717800601
 20
14.046343
 30
0.0
 11
60.003767178006
 21
13.379803
 31
0.0
  0
LINE
  5
100
330
1F
100
AcDbEntity
  8
0
  6
Continuous
 62
     7
100
AcDbLine
 10
62.370717178006
 20
18.87982299999999
 30
0.0
 11
58.96032717800601
 21
18.87982299999999
 31
0.0
  0
LINE
  5
101
330
1F
100
AcDbEntity
  8
0
  6
Continuous
 62
     7
100
AcDbLine
 10
64.20982717800601
 20
16.37982299999999
 30
0.0
 11
58.96032717800601
 21
16.37982299999999
 31
0.0
  0
LINE
  5
102
330
1F
100
AcDbEntity
  8
0
  6
Continuous
 62
     7
100
AcDbLine
 10
63.00378717800601
 20
13.37982299999999
 30
0.0
 11
64.83506717800601
 21
14.046353
 31
0.0
  0
LINE
  5
103
330
1F
100
AcDbEntity
  8
0
  6
Continuous
 62
     7
100
AcDbLine
 10
60.00378717800601
 20
13.37982299999999
 30
0.0
 11
60.00378717800601
 21
11.879823
 31
0.0
  0
LINE
  5
104
330
1F
100
AcDbEntity
  8
0
  6
Continuous
 62
     7
100
AcDbLine
 10
63.00378717800601
 20
13.37982299999999
 30
0.0
 11
63.00378717800601
 21
11.879823
 31
0.0
  0
LINE
  5
105
330
1F
100
AcDbEntity
  8
0
  6
Continuous
 62
     7
100
AcDbLine
 10
60.00378717800601
 20
11.879823
 30
0.0
 11
50.00378717800601
 21
11.879823
 31
0.0
  0
LINE
  5
106
330
1F
100
AcDbEntity
  8
0
  6
Continuous
 62
     7
100
AcDbLine
 10
46.00378717800601
 20
22.879823
 30
0.0
 11
20.17491717800601
 21
22.879823
 31
0.0
  0
LINE
  5
107
330
1F
100
AcDbEntity
  8
0
  6
Continuous
 62
     7
100
AcDbLine
 10
46.50378717800601
 20
14.879823
 30
0.0
 11
46.50378717800601
 21
22.379823
 31
0.0
  0
LINE
  5
108
330
1F
100
AcDbEntity
  8
0
  6
Continuous
 62
     7
100
AcDbLine
 10
48.00378717800601
 20
14.879823
 30
0.0
 11
48.00378717800601
 21
22.379823
 31
0.0
  0
LINE
  5
109
330
1F
100
AcDbEntity
  8
0
  6
Continuous
 62
     7
100
AcDbLine
 10
46.00378717800601
 20
14.379823
 30
0.0
 11
42.50378717800601
 21
14.379823
 31
0.0
  0
LINE
  5
10A
330
1F
100
AcDbEntity
  8
0
  6
Continuous
 62
     7
100
AcDbLine
 10
64.835087178006
 20
14.046353
 30
0.0
 11
64.20983717800601
 21
16.37982299999999
 31
0.0
  0
LINE
  5
10B
330
1F
100
AcDbEntity
  8
0
  6
Continuous
 62
     7
100
AcDbLine
 10
61.56686717800601
 20
22.87982299999999
 30
0.0
 11
48.50378717800601
 21
22.879823
 31
0.0
  0
LINE
  5
10C
330
1F
100
AcDbEntity
  8
0
  6
Continuous
 62
     7
100
AcDbLine
 10
50.00378717800601
 20
1.879823
 30
0.0
 11
50.00378717800601
 21
-26.120177
 31
0.0
  0
LINE
  5
10D
330
1F
100
AcDbEntity
  8
0
  6
Continuous
 62
     7
100
AcDbLine
 10
40.00378717800601
 20
-24.120177
 30
0.0
 11
40.00378717800601
 21
-33.12017699999998
 31
0.0
  0
LINE
  5
10E
330
1F
100
AcDbEntity
  8
0
  6
Continuous
 62
     7
100
AcDbLine
 10
47.00378717800601
 20
-1.120177
 30
0.0
 11
43.00378717800601
 21
-1.120177
 31
0.0
  0
LINE
  5
10F
330
1F
100
AcDbEntity
  8
0
  6
Continuous
 62
     7
100
AcDbLine
 10
43.00378717800601
 20
-24.620177
 30
0.0
 11
43.00378717800601
 21
-33.12017699999998
 31
0.0
  0
LINE
  5
110
330
1F
100
AcDbEntity
  8
0
  6
Continuous
 62
     7
100
AcDbLine
 10
45.30377717800602
 20
-24.620177
 30
0.0
 11
45.30377717800602
 21
-26.120177
 31
0.0
  0
LINE
  5
111
330
1F
100
AcDbEntity
  8
0
  6
Continuous
 62
     7
100
AcDbLine
 10
45.30377717800602
 20
-26.120177
 30
0.0
 11
50.00378717800601
 21
-26.120177
 31
0.0
  0
LINE
  5
112
330
1F
100
AcDbEntity
  8
0
  6
Continuous
 62
     7
100
AcDbLine
 10
43.00378717800601
 20
-24.620177
 30
0.0
 11
45.30377717800602
 21
-24.620177
 31
0.0
  0
LINE
  5
113
330
1F
100
AcDbEntity
  8
0
  6
Continuous
 62
     7
100
AcDbLine
 10
50.00378717800601
 20
-31.62017699999998
 30
0.0
 11
50.00378717800601
 21
-36.12017699999998
 31
0.0
  0
LINE
  5
114
330
1F
100
AcDbEntity
  8
0
  6
Continuous
 62
     7
100
AcDbLine
 10
47.00378717800601
 20
-31.55328699999998
 30
0.0
 11
47.00378717800601
 21
-33.12017699999998
 31
0.0
  0
LINE
  5
115
330
1F
100
AcDbEntity
  8
0
  6
Continuous
 62
     7
100
AcDbLine
 10
47.00380717800601
 20
-31.55328699999998
 30
0.0
 11
49.41697717800601
 21
-31.12777700000001
 31
0.0
  0
LINE
  5
116
330
1F
100
AcDbEntity
  8
0
  6
Continuous
 62
     7
100
AcDbLine
 10
47.00378717800601
 20
-33.12017699999998
 30
0.0
 11
43.00378717800601
 21
-33.12017699999998
 31
0.0
  0
LINE
  5
117
330
1F
100
AcDbEntity
  8
0
  6
Continuous
 62
     7
100
AcDbLine
 10
47.00378717800601
 20
-1.120177
 30
0.0
 11
47.00378717800601
 21
-22.120177
 31
0.0
  0
LINE
  5
118
330
1F
100
AcDbEntity
  8
0
  6
Continuous
 62
     7
100
AcDbLine
 10
49.50378717800601
 20
8.879823
 30
0.0
 11
48.307637178006
 21
8.879823
 31
0.0
  0
LINE
  5
119
330
1F
100
AcDbEntity
  8
0
  6
Continuous
 62
     7
100
AcDbLine
 10
50.00378717800601
 20
1.879823
 30
0.0
 11
43.00378717800601
 21
1.879823
 31
0.0
  0
LINE
  5
11A
330
1F
100
AcDbEntity
  8
0
  6
Continuous
 62
     7
100
AcDbLine
 10
47.50378717800601
 20
11.879823
 30
0.0
 11
43.00378717800601
 21
11.879823
 31
0.0
  0
LINE
  5
11B
330
1F
100
AcDbEntity
  8
0
  6
Continuous
 62
     7
100
AcDbLine
 10
47.50378717800601
 20
11.879823
 30
0.0
 11
48.307637178006
 21
8.879823
 31
0.0
  0
LINE
  5
11C
330
1F
100
AcDbEntity
  8
0
  6
Continuous
 62
     7
100
AcDbLine
 10
68.00378717800601
 20
11.879823
 30
0.0
 11
63.00378717800601
 21
11.879823
 31
0.0
  0
LINE
  5
11D
330
1F
100
AcDbEntity
  8
0
  6
Continuous
 62
     7
100
AcDbLine
 10
43.00378717800601
 20
11.879823
 30
0.0
 11
43.00378717800601
 21
1.879823
 31
0.0
  0
LINE
  5
11E
330
1F
100
AcDbEntity
  8
0
  6
Continuous
 62
     7
100
AcDbLine
 10
50.00378717800601
 20
11.879823
 30
0.0
 11
50.00378717800601
 21
9.379823
 31
0.0
  0
LINE
  5
11F
330
1F
100
AcDbEntity
  8
0
  6
Continuous
 62
     7
100
AcDbLine
 10
68.00378717800601
 20
11.879823
 30
0.0
 11
64.64970717800601
 21
24.39746299999999
 31
0.0
  0
LINE
  5
120
330
1F
100
AcDbEntity
  8
0
  6
Continuous
 62
     7
100
AcDbLine
 10
62.71783717800601
 20
25.87982299999999
 30
0.0
 11
16.00376717800601
 21
25.879823
 31
0.0
  0
LINE
  5
121
330
1F
100
AcDbEntity
  8
1
  6
Continuous
 62
     7
100
AcDbLine
 10
-12.99621282199399
 20
-35.12017700000001
 30
0.0
 11
-12.99621282199399
 21
-22.120177
 31
0.0
  0
LINE
  5
122
102
{ACAD_REACTORS
330
18C
330
18C
102
}
330
1F
100
AcDbEntity
  8
1
  6
Continuous
 62
     7
100
AcDbLine
 10
-39.0
 20
4.17982300000001
 30
0.0
 11
-13.29620782199399
 21
4.17982300000001
 31
0.0
  0
LINE
  5
123
102
{ACAD_REACTORS
330
18C
330
18C
102
}
330
1F
100
AcDbEntity
  8
1
  6
Continuous
 62
     7
100
AcDbLine
 10
-12.79620782199399
 20
4.67982300000001
 30
0.0
 11
-12.79620782199399
 21
24.379823
 31
0.0
  0
LINE
  5
124
102
{ACAD_REACTORS
330
18C
330
18C
102
}
330
1F
100
AcDbEntity
  8
1
  6
Continuous
 62
     7
100
AcDbLine
 10
-13.29620782199399
 20
24.879823
 30
0.0
 11
-39.0
 21
24.879823
 31
0.0
  0
LINE
  5
125
102
{ACAD_REACTORS
330
18C
330
18C
102
}
330
1F
100
AcDbEntity
  8
1
  6
Continuous
 62
     7
100
AcDbLine
 10
-39.5
 20
24.379823
 30
0.0
 11
-39.5
 21
4.67982300000001
 31
0.0
  0
LINE
  5
126
102
{ACAD_REACTORS
330
18C
330
18C
102
}
330
1F
100
AcDbEntity
  8
1
  6
Continuous
 62
     7
100
AcDbLine
 10
-13.29620782199399
 20
26.379823
 30
0.0
 11
-39.0
 21
26.379823
 31
0.0
  0
LINE
  5
127
102
{ACAD_REACTORS
330
18C
330
18C
102
}
330
1F
100
AcDbEntity
  8
1
  6
Continuous
 62
     7
100
AcDbLine
 10
-41.0
 20
24.379823
 30
0.0
 11
-41.0
 21
4.67982300000001
 31
0.0
  0
LINE
  5
128
102
{ACAD_REACTORS
330
18C
330
18C
102
}
330
1F
100
AcDbEntity
  8
1
  6
Continuous
 62
     7
100
AcDbLine
 10
-39.0
 20
2.67982300000001
 30
0.0
 11
-13.29620782199399
 21
2.67982300000001
 31
0.0
  0
LINE
  5
129
102
{ACAD_REACTORS
330
18C
330
18C
102
}
330
1F
100
AcDbEntity
  8
1
  6
Continuous
 62
     7
100
AcDbLine
 10
-11.29620782199399
 20
4.67982300000001
 30
0.0
 11
-11.29620782199399
 21
24.379823
 31
0.0
  0
LINE
  5
12A
102
{ACAD_REACTORS
330
18D
330
18D
102
}
330
1F
100
AcDbEntity
  8
1
  6
Continuous
 62
     7
100
AcDbLine
 10
25.70378817800552
 20
-19.620177
 30
0.0
 11
37.00378717800601
 21
-19.620177
 31
0.0
  0
LINE
  5
12B
102
{ACAD_REACTORS
330
18D
330
18D
102
}
330
1F
100
AcDbEntity
  8
1
  6
Continuous
 62
     7
100
AcDbLine
 10
37.50378717800601
 20
-19.120177
 30
0.0
 11
37.50378717800601
 21
6.57981299999998
 31
0.0
  0
LINE
  5
12C
102
{ACAD_REACTORS
330
18D
330
18D
102
}
330
1F
100
AcDbEntity
  8
1
  6
Continuous
 62
     7
100
AcDbLine
 10
37.00378717800601
 20
7.07981299999998
 30
0.0
 11
25.70378817800552
 21
7.07981299999998
 31
0.0
  0
LINE
  5
12D
102
{ACAD_REACTORS
330
18D
330
18D
102
}
330
1F
100
AcDbEntity
  8
1
  6
Continuous
 62
     7
100
AcDbLine
 10
25.20378817800552
 20
6.57981299999998
 30
0.0
 11
25.20378817800552
 21
-19.120177
 31
0.0
  0
LINE
  5
12E
102
{ACAD_REACTORS
330
18D
330
18D
102
}
330
1F
100
AcDbEntity
  8
1
  6
Continuous
 62
     7
100
AcDbLine
 10
37.00378717800601
 20
8.57981299999998
 30
0.0
 11
25.70378817800552
 21
8.57981299999998
 31
0.0
  0
LINE
  5
12F
102
{ACAD_REACTORS
330
18D
330
18D
102
}
330
1F
100
AcDbEntity
  8
1
  6
Continuous
 62
     7
100
AcDbLine
 10
23.70378817800552
 20
6.57981299999998
 30
0.0
 11
23.70378817800552
 21
-19.12017700000001
 31
0.0
  0
LINE
  5
130
102
{ACAD_REACTORS
330
18D
330
18D
102
}
330
1F
100
AcDbEntity
  8
1
  6
Continuous
 62
     7
100
AcDbLine
 10
25.70378817800552
 20
-21.120177
 30
0.0
 11
37.00378717800601
 21
-21.120177
 31
0.0
  0
LINE
  5
131
102
{ACAD_REACTORS
330
18D
330
18D
102
}
330
1F
100
AcDbEntity
  8
1
  6
Continuous
 62
     7
100
AcDbLine
 10
39.00378717800601
 20
-19.120177
 30
0.0
 11
39.00378717800601
 21
6.57981299999998
 31
0.0
  0
ARC
  5
132
330
1F
100
AcDbEntity
  8
PV
  6
Continuous
 62
     7
100
AcDbCircle
 10
11.69389717800602
 20
33.379823
 30
0.0
 40
2.5
100
AcDbArc
 50
90.0
 51
164.9999000000001
  0
ARC
  5
133
330
1F
100
AcDbEntity
  8
PV
  6
Continuous
 62
     7
100
AcDbCircle
 10
8.18615717800601
 20
31.879823
 30
0.0
 40
0.5
100
AcDbArc
 50
-90.0
 51
-15.00003999999951
  0
ARC
  5
134
330
1F
100
AcDbEntity
  8
PV
  6
Continuous
 62
     7
100
AcDbCircle
 10
15.61399717800602
 20
40.879823
 30
0.0
 40
2.000002999999992
100
AcDbArc
 50
14.99999999999979
 51
90.0
  0
ARC
  5
135
330
1F
100
AcDbEntity
  8
PV
  6
Continuous
 62
     7
100
AcDbCircle
 10
15.57132717800601
 20
31.379823
 30
0.0
 40
2.000003000000012
100
AcDbArc
 50
14.99999999999974
 51
90.0
  0
ARC
  5
136
330
1F
100
AcDbEntity
  8
PV
  6
Continuous
 62
     7
100
AcDbCircle
 10
-6.79620782199399
 20
10.168733
 30
0.0
 40
0.4999929999999979
100
AcDbArc
 50
105.0000999999992
 51
180.0
  0
ARC
  5
137
330
1F
100
AcDbEntity
  8
PV
  6
Continuous
 62
     7
100
AcDbCircle
 10
-6.79620782199399
 20
7.590913
 30
0.0
 40
0.5
100
AcDbArc
 50
180.0
 51
-105.0000000000005
  0
ARC
  5
138
330
1F
100
AcDbEntity
  8
PV
  6
Continuous
 62
     7
100
AcDbCircle
 10
-2.79620782199399
 20
1.879823
 30
0.0
 40
0.5
100
AcDbArc
 50
180.0
 51
-90.0
  0
ARC
  5
139
330
1F
100
AcDbEntity
  8
PV
  6
Continuous
 62
     7
100
AcDbCircle
 10
-6.79620782199399
 20
4.300003
 30
0.0
 40
0.5000080000000003
100
AcDbArc
 50
75.00020000000093
 51
180.0
  0
ARC
  5
13A
330
1F
100
AcDbEntity
  8
PV
  6
Continuous
 62
     7
100
AcDbCircle
 10
-42.09620282199398
 20
2.17982300000001
 30
0.0
 40
0.5
100
AcDbArc
 50
180.0
 51
-90.0
  0
ARC
  5
13B
330
1F
100
AcDbEntity
  8
PV
  6
Continuous
 62
     7
100
AcDbCircle
 10
-10.79620782199399
 20
-0.320177
 30
0.0
 40
0.5
100
AcDbArc
 50
0.0
 51
90.0
  0
ARC
  5
13C
330
1F
100
AcDbEntity
  8
PV
  6
Continuous
 62
     7
100
AcDbCircle
 10
-42.09620282199398
 20
26.879823
 30
0.0
 40
0.5
100
AcDbArc
 50
90.0
 51
180.0
  0
ARC
  5
13D
330
1F
100
AcDbEntity
  8
PV
  6
Continuous
 62
     7
100
AcDbCircle
 10
-42.09620282199398
 20
29.379823
 30
0.0
 40
0.5
100
AcDbArc
 50
180.0
 51
-90.0
  0
ARC
  5
13E
330
1F
100
AcDbEntity
  8
PV
  6
Continuous
 62
     7
100
AcDbCircle
 10
-42.09620282199398
 20
39.379823
 30
0.0
 40
0.5
100
AcDbArc
 50
90.0
 51
180.0
  0
ARC
  5
13F
330
1F
100
AcDbEntity
  8
PV
  6
Continuous
 62
     7
100
AcDbCircle
 10
-10.79620782199399
 20
39.379823
 30
0.0
 40
0.5
100
AcDbArc
 50
0.0
 51
90.0
  0
ARC
  5
140
330
1F
100
AcDbEntity
  8
PV
  6
Continuous
 62
     7
100
AcDbCircle
 10
-10.79620782199399
 20
29.379823
 30
0.0
 40
0.5
100
AcDbArc
 50
-90.0
 51
0.0
  0
ARC
  5
141
330
1F
100
AcDbEntity
  8
PV
  6
Continuous
 62
     7
100
AcDbCircle
 10
-42.09620282199398
 20
-0.32017699999999
 30
0.0
 40
0.5
100
AcDbArc
 50
90.0
 51
180.0
  0
ARC
  5
142
330
1F
100
AcDbEntity
  8
PV
  6
Continuous
 62
     7
100
AcDbCircle
 10
-8.29620782199399
 20
31.879823
 30
0.0
 40
0.5
100
AcDbArc
 50
180.0
 51
-90.0
  0
ARC
  5
143
330
1F
100
AcDbEntity
  8
PV
  6
Continuous
 62
     7
100
AcDbCircle
 10
-8.29620782199399
 20
39.379823
 30
0.0
 40
0.5000000000000012
100
AcDbArc
 50
89.99989999999971
 51
180.0
  0
ARC
  5
144
330
1F
100
AcDbEntity
  8
PV
  6
Continuous
 62
     7
100
AcDbCircle
 10
-41.696212821994
 20
21.379823
 30
0.0
 40
0.5000069999999976
100
AcDbArc
 50
-63.80481999999998
 51
63.80400000000032
  0
ARC
  5
145
330
1F
100
AcDbEntity
  8
PV
  6
Continuous
 62
     7
100
AcDbCircle
 10
-41.696212821994
 20
7.67982300000001
 30
0.0
 40
0.5000070000000009
100
AcDbArc
 50
-63.80482000000016
 51
63.80400000000014
  0
ARC
  5
146
330
1F
100
AcDbEntity
  8
PV
  6
Continuous
 62
     7
100
AcDbCircle
 10
16.73967717800602
 20
25.879823
 30
0.0
 40
2.999992999999998
100
AcDbArc
 50
30.00009999999996
 51
90.0
  0
ARC
  5
147
330
1F
100
AcDbEntity
  8
PV
  6
Continuous
 62
     7
100
AcDbCircle
 10
-25.79620282199399
 20
39.379823
 30
0.0
 40
0.5
100
AcDbArc
 50
90.0
 51
180.0
  0
ARC
  5
148
330
1F
100
AcDbEntity
  8
PV
  6
Continuous
 62
     7
100
AcDbCircle
 10
-28.29620282199399
 20
39.379823
 30
0.0
 40
0.5
100
AcDbArc
 50
0.0
 51
90.0
  0
ARC
  5
149
330
1F
100
AcDbEntity
  8
PV
  6
Continuous
 62
     7
100
AcDbCircle
 10
-28.29620282199399
 20
29.379823
 30
0.0
 40
0.5
100
AcDbArc
 50
-90.0
 51
0.0
  0
ARC
  5
14A
330
1F
100
AcDbEntity
  8
PV
  6
Continuous
 62
     7
100
AcDbCircle
 10
-25.79620282199399
 20
29.379823
 30
0.0
 40
0.5
100
AcDbArc
 50
180.0
 51
-90.0
  0
ARC
  5
14B
330
1F
100
AcDbEntity
  8
PV
  6
Continuous
 62
     7
100
AcDbCircle
 10
14.46295717800601
 20
39.379823
 30
0.0
 40
0.5000079999999901
100
AcDbArc
 50
14.99980000000023
 51
90.0
  0
ARC
  5
14C
330
1F
100
AcDbEntity
  8
PV
  6
Continuous
 62
     7
100
AcDbCircle
 10
15.26680717800602
 20
36.379823
 30
0.0
 40
0.5
100
AcDbArc
 50
-90.0
 51
14.99980000000044
  0
ARC
  5
14D
330
1F
100
AcDbEntity
  8
PV
  6
Continuous
 62
     7
100
AcDbCircle
 10
-10.79620782199399
 20
26.879823
 30
0.0
 40
0.5
100
AcDbArc
 50
0.0
 51
90.0
  0
ARC
  5
14E
330
1F
100
AcDbEntity
  8
PV
  6
Continuous
 62
     7
100
AcDbCircle
 10
-10.79620782199399
 20
2.179823
 30
0.0
 40
0.5
100
AcDbArc
 50
-90.0
 51
0.0
  0
ARC
  5
14F
330
1F
100
AcDbEntity
  8
1
  6
Continuous
 62
     7
100
AcDbCircle
 10
-25.99621482199399
 20
-31.62017700000001
 30
0.0
 40
6.999999999999996
100
AcDbArc
 50
180.0
 51
-30.00000000000003
  0
ARC
  5
150
330
1F
100
AcDbEntity
  8
1
  6
DASHED
 62
     2
100
AcDbCircle
 10
-25.99621482199399
 20
-31.62017700000001
 30
0.0
 40
7.0
100
AcDbArc
 50
90.0
 51
180.0
  0
ARC
  5
151
330
1F
100
AcDbEntity
  8
1
  6
Continuous
 62
     7
100
AcDbCircle
 10
-25.99621482199399
 20
-31.62017700000001
 30
0.0
 40
7.000000000000001
100
AcDbArc
 50
-30.00000000000003
 51
0.00000000000006
  0
ARC
  5
152
330
1F
100
AcDbEntity
  8
0
  6
Continuous
 62
     7
100
AcDbCircle
 10
49.50378717800601
 20
9.379823
 30
0.0
 40
0.5
100
AcDbArc
 50
-90.0
 51
0.00007999999991
  0
ARC
  5
153
330
1F
100
AcDbEntity
  8
0
  6
Continuous
 62
     7
100
AcDbCircle
 10
39.50378717800601
 20
9.379823
 30
0.0
 40
0.4999999999999971
100
AcDbArc
 50
0.00007999999991
 51
90.00019999999978
  0
ARC
  5
154
330
1F
100
AcDbEntity
  8
0
  6
Continuous
 62
     7
100
AcDbCircle
 10
39.54574717800601
 20
12.379823
 30
0.0
 40
0.5
100
AcDbArc
 50
-90.0
 51
-9.59535000000122
  0
ARC
  5
155
330
1F
100
AcDbEntity
  8
0
  6
Continuous
 62
     7
100
AcDbCircle
 10
13.81288717800601
 20
-22.320177
 30
0.0
 40
0.2000009999999899
100
AcDbArc
 50
5.21595000000235
 51
90.0002000000023
  0
ARC
  5
156
330
1F
100
AcDbEntity
  8
0
  6
Continuous
 62
     7
100
AcDbCircle
 10
16.00378717800601
 20
-22.120177
 30
0.0
 40
2.00001099999999
100
AcDbArc
 50
-174.7842
 51
-90.0
  0
ARC
  5
157
330
1F
100
AcDbEntity
  8
0
  6
Continuous
 62
     7
100
AcDbCircle
 10
62.370717178006
 20
19.37982299999999
 30
0.0
 40
0.5
100
AcDbArc
 50
-90.0
 51
15.00029999999987
  0
ARC
  5
158
330
1F
100
AcDbEntity
  8
0
  6
Continuous
 62
     7
100
AcDbCircle
 10
61.56686717800601
 20
22.37982299999999
 30
0.0
 40
0.4999930000000058
100
AcDbArc
 50
15.00030000000104
 51
90.00019999999967
  0
ARC
  5
159
330
1F
100
AcDbEntity
  8
0
  6
Continuous
 62
     7
100
AcDbCircle
 10
36.00378717800601
 20
9.079823
 30
0.0
 40
0.5000099999999965
100
AcDbArc
 50
-151.6409
 51
-28.35990000000002
  0
ARC
  5
15A
330
1F
100
AcDbEntity
  8
0
  6
Continuous
 62
     7
100
AcDbCircle
 10
25.703787178006
 20
9.079823
 30
0.0
 40
0.5000099999999778
100
AcDbArc
 50
-151.6408999999989
 51
-28.35989999999964
  0
ARC
  5
15B
330
1F
100
AcDbEntity
  8
0
  6
Continuous
 62
     7
100
AcDbCircle
 10
22.203787178006
 20
9.379823
 30
0.0
 40
0.5000000000000083
100
AcDbArc
 50
90.00009999999826
 51
179.9998999999997
  0
ARC
  5
15C
330
1F
100
AcDbEntity
  8
0
  6
Continuous
 62
     7
100
AcDbCircle
 10
9.30378717800602
 20
-22.120177
 30
0.0
 40
2.000000000000001
100
AcDbArc
 50
-69.51267000000017
 51
0.00007999999991
  0
ARC
  5
15D
330
1F
100
AcDbEntity
  8
0
  6
Continuous
 62
     7
100
AcDbCircle
 10
16.00378717800601
 20
-19.220179
 30
0.0
 40
3.000000000000011
100
AcDbArc
 50
90.00009999999989
 51
179.9998999999999
  0
ARC
  5
15E
330
1F
100
AcDbEntity
  8
0
  6
Continuous
 62
     7
100
AcDbCircle
 10
17.703787178006
 20
-15.220179
 30
0.0
 40
1.000000000000002
100
AcDbArc
 50
-90.0
 51
0.00007999999991
  0
ARC
  5
15F
330
1F
100
AcDbEntity
  8
0
  6
Continuous
 62
     7
100
AcDbCircle
 10
18.703787178006
 20
-16.220179
 30
0.0
 40
3.0
100
AcDbArc
 50
-90.0
 51
0.00005000000008
  0
ARC
  5
160
330
1F
100
AcDbEntity
  8
0
  6
Continuous
 62
     7
100
AcDbCircle
 10
22.996677178006
 20
-10.620177
 30
0.0
 40
0.4999999999999799
100
AcDbArc
 50
179.9998999999995
 51
-90.0
  0
ARC
  5
161
330
1F
100
AcDbEntity
  8
0
  6
Continuous
 62
     7
100
AcDbCircle
 10
22.996677178006
 20
-9.620177
 30
0.0
 40
0.4999999999999941
100
AcDbArc
 50
90.00009999999826
 51
179.9998999999997
  0
ARC
  5
162
330
1F
100
AcDbEntity
  8
0
  6
Continuous
 62
     7
100
AcDbCircle
 10
23.203787178006
 20
-12.20061799999999
 30
0.0
 40
0.5000010000000087
100
AcDbArc
 50
-74.99997999999839
 51
0.00007999999909
  0
ARC
  5
163
330
1F
100
AcDbEntity
  8
0
  6
Continuous
 62
     7
100
AcDbCircle
 10
23.203787178006
 20
-8.039737
 30
0.0
 40
0.5000000000000184
100
AcDbArc
 50
0.00007999999991
 51
75.00009999999807
  0
ARC
  5
164
330
1F
100
AcDbEntity
  8
0
  6
Continuous
 62
     7
100
AcDbCircle
 10
21.93818717800602
 20
12.379823
 30
0.0
 40
0.5000149999999983
100
AcDbArc
 50
-169.9988000000006
 51
-90.0
  0
ARC
  5
165
330
1F
100
AcDbEntity
  8
0
  6
Continuous
 62
     7
100
AcDbCircle
 10
18.703787178006
 20
-1.52018699999999
 30
0.0
 40
0.4999999999999998
100
AcDbArc
 50
-90.0
 51
0.00007999999831
  0
ARC
  5
166
330
1F
100
AcDbEntity
  8
0
  6
Continuous
 62
     7
100
AcDbCircle
 10
18.703787178006
 20
9.404263
 30
0.0
 40
0.5000000000000012
100
AcDbArc
 50
0.00009999999867
 51
100.0011999999994
  0
ARC
  5
167
330
1F
100
AcDbEntity
  8
0
  6
Continuous
 62
     7
100
AcDbCircle
 10
20.17491717800601
 20
22.379823
 30
0.0
 40
0.5000000000000119
100
AcDbArc
 50
90.00009999999786
 51
-170.0001999999997
  0
ARC
  5
168
330
1F
100
AcDbEntity
  8
0
  6
Continuous
 62
     7
100
AcDbCircle
 10
18.996677178006
 20
-10.120181
 30
0.0
 40
0.4999950000000175
100
AcDbArc
 50
-45.00057999999834
 51
45.0006999999999
  0
ARC
  5
169
330
1F
100
AcDbEntity
  8
0
  6
Continuous
 62
     7
100
AcDbCircle
 10
5.25378717800601
 20
-32.07379699999998
 30
0.0
 40
0.4536229999999931
100
AcDbArc
 50
14.99989999999767
 51
165.0000000000026
  0
ARC
  5
16A
330
1F
100
AcDbEntity
  8
0
  6
Continuous
 62
     7
100
AcDbCircle
 10
17.703787178006
 20
-5.02017700000001
 30
0.0
 40
1.000000000000016
100
AcDbArc
 50
0.00007999999991
 51
90.00019999999978
  0
ARC
  5
16B
330
1F
100
AcDbEntity
  8
0
  6
Continuous
 62
     7
100
AcDbCircle
 10
9.50378717800601
 20
7.782073
 30
0.0
 40
0.4999970000000075
100
AcDbArc
 50
100.000000000001
 51
179.999899999999
  0
ARC
  5
16C
330
1F
100
AcDbEntity
  8
0
  6
Continuous
 62
     7
100
AcDbCircle
 10
9.30378717800602
 20
-2.120177
 30
0.0
 40
1.999986999999987
100
AcDbArc
 50
2.86580999999976
 51
90.00010000000015
  0
ARC
  5
16D
330
1F
100
AcDbEntity
  8
0
  6
Continuous
 62
     7
100
AcDbCircle
 10
-2.14601982199399
 20
-25.120177
 30
0.0
 40
0.4999999999999941
100
AcDbArc
 50
90.00010000000034
 51
164.999899999999
  0
ARC
  5
16E
330
1F
100
AcDbEntity
  8
0
  6
Continuous
 62
     7
100
AcDbCircle
 10
-9.49621282199399
 20
-32.62017699999998
 30
0.0
 40
0.5000000000000012
100
AcDbArc
 50
179.9999000000013
 51
-90.0
  0
ARC
  5
16F
330
1F
100
AcDbEntity
  8
0
  6
Continuous
 62
     7
100
AcDbCircle
 10
-9.49621282199399
 20
-29.620177
 30
0.0
 40
0.5000000000000119
100
AcDbArc
 50
90.00009999999867
 51
179.9998999999993
  0
ARC
  5
170
330
1F
100
AcDbEntity
  8
0
  6
Continuous
 62
     7
100
AcDbCircle
 10
-5.65377082199399
 20
-26.620177
 30
0.0
 40
2.5
100
AcDbArc
 50
-90.0
 51
-14.9999799999999
  0
ARC
  5
171
330
1F
100
AcDbEntity
  8
0
  6
Continuous
 62
     7
100
AcDbCircle
 10
46.00378717800601
 20
14.879823
 30
0.0
 40
0.5
100
AcDbArc
 50
-90.0
 51
0.00007999999991
  0
ARC
  5
172
330
1F
100
AcDbEntity
  8
0
  6
Continuous
 62
     7
100
AcDbCircle
 10
46.00378717800601
 20
22.379823
 30
0.0
 40
0.4999999999999971
100
AcDbArc
 50
0.00007999999991
 51
90.00019999999978
  0
ARC
  5
173
330
1F
100
AcDbEntity
  8
0
  6
Continuous
 62
     7
100
AcDbCircle
 10
48.50378717800601
 20
14.879823
 30
0.0
 40
0.499999999999987
100
AcDbArc
 50
179.9998999999995
 51
-90.0
  0
ARC
  5
174
330
1F
100
AcDbEntity
  8
0
  6
Continuous
 62
     7
100
AcDbCircle
 10
48.50378717800601
 20
22.379823
 30
0.0
 40
0.5000000000000119
100
AcDbArc
 50
90.00010000000029
 51
179.9998999999993
  0
ARC
  5
175
330
1F
100
AcDbEntity
  8
0
  6
Continuous
 62
     7
100
AcDbCircle
 10
55.45257717800601
 20
14.87982299999999
 30
0.0
 40
0.5
100
AcDbArc
 50
-90.0
 51
-15.00017999999812
  0
ARC
  5
176
330
1F
100
AcDbEntity
  8
0
  6
Continuous
 62
     7
100
AcDbCircle
 10
58.96032717800601
 20
16.37982299999999
 30
0.0
 40
2.500000000000006
100
AcDbArc
 50
90.00009999999997
 51
164.9998999999997
  0
ARC
  5
177
330
1F
100
AcDbEntity
  8
0
  6
Continuous
 62
     7
100
AcDbCircle
 10
42.50378717800601
 20
11.879823
 30
0.0
 40
2.499999999999997
100
AcDbArc
 50
90.00009999999997
 51
170.4061000000001
  0
ARC
  5
178
330
1F
100
AcDbEntity
  8
0
  6
Continuous
 62
     7
100
AcDbCircle
 10
62.71783717800601
 20
23.87982299999999
 30
0.0
 40
2.00000299999999
100
AcDbArc
 50
15.0000999999996
 51
90.00020000000002
  0
ARC
  5
179
330
1F
100
AcDbEntity
  8
0
  6
Continuous
 62
     7
100
AcDbCircle
 10
43.00378717800601
 20
1.879823
 30
0.0
 40
2.999999999999993
100
AcDbArc
 50
179.9999
 51
-90.0
  0
ARC
  5
17A
330
1F
100
AcDbEntity
  8
0
  6
Continuous
 62
     7
100
AcDbCircle
 10
49.50378717800601
 20
-31.62017699999998
 30
0.0
 40
0.5000000000000012
100
AcDbArc
 50
0.00009999999948
 51
99.99969999999942
  0
CIRCLE
  5
17B
330
1F
100
AcDbEntity
  8
1
  6
Continuous
 62
     7
100
AcDbCircle
 10
-25.99621482199399
 20
-31.62017700000001
 30
0.0
 40
5.0
  0
ARC
  5
17C
102
{ACAD_REACTORS
330
18C
330
18C
102
}
330
1F
100
AcDbEntity
  8
1
  6
Continuous
 62
     7
100
AcDbCircle
 10
-39.0
 20
24.379823
 30
0.0
 40
0.5
100
AcDbArc
 50
90.0
 51
180.0
  0
ARC
  5
17D
102
{ACAD_REACTORS
330
18C
330
18C
102
}
330
1F
100
AcDbEntity
  8
1
  6
Continuous
 62
     7
100
AcDbCircle
 10
-13.29620782199399
 20
24.379823
 30
0.0
 40
0.5
100
AcDbArc
 50
0.0
 51
90.0
  0
ARC
  5
17E
102
{ACAD_REACTORS
330
18C
330
18C
102
}
330
1F
100
AcDbEntity
  8
1
  6
Continuous
 62
     7
100
AcDbCircle
 10
-13.29620782199399
 20
4.67982300000001
 30
0.0
 40
0.5
100
AcDbArc
 50
-90.0
 51
0.0
  0
ARC
  5
17F
102
{ACAD_REACTORS
330
18C
330
18C
102
}
330
1F
100
AcDbEntity
  8
1
  6
Continuous
 62
     7
100
AcDbCircle
 10
-39.0
 20
4.67982300000001
 30
0.0
 40
0.5
100
AcDbArc
 50
179.9999999999995
 51
-90.0
  0
ARC
  5
180
102
{ACAD_REACTORS
330
18C
330
18C
102
}
330
1F
100
AcDbEntity
  8
1
  6
Continuous
 62
     7
100
AcDbCircle
 10
-13.29620782199399
 20
24.379823
 30
0.0
 40
2.0
100
AcDbArc
 50
0.0
 51
90.0
  0
ARC
  5
181
102
{ACAD_REACTORS
330
18C
330
18C
102
}
330
1F
100
AcDbEntity
  8
1
  6
Continuous
 62
     7
100
AcDbCircle
 10
-39.0
 20
24.379823
 30
0.0
 40
2.0
100
AcDbArc
 50
90.0
 51
180.0
  0
ARC
  5
182
102
{ACAD_REACTORS
330
18C
330
18C
102
}
330
1F
100
AcDbEntity
  8
1
  6
Continuous
 62
     7
100
AcDbCircle
 10
-39.0
 20
4.67982300000001
 30
0.0
 40
2.0
100
AcDbArc
 50
179.9999999999999
 51
-90.0
  0
ARC
  5
183
102
{ACAD_REACTORS
330
18C
330
18C
102
}
330
1F
100
AcDbEntity
  8
1
  6
Continuous
 62
     7
100
AcDbCircle
 10
-13.29620782199399
 20
4.67982300000001
 30
0.0
 40
1.999999999999999
100
AcDbArc
 50
-90.0
 51
0.00000000000003
  0
ARC
  5
184
102
{ACAD_REACTORS
330
18D
330
18D
102
}
330
1F
100
AcDbEntity
  8
1
  6
Continuous
 62
     7
100
AcDbCircle
 10
25.70378817800552
 20
6.57981299999998
 30
0.0
 40
0.5
100
AcDbArc
 50
90.0
 51
180.0
  0
ARC
  5
185
102
{ACAD_REACTORS
330
18D
330
18D
102
}
330
1F
100
AcDbEntity
  8
1
  6
Continuous
 62
     7
100
AcDbCircle
 10
37.00378717800601
 20
6.57981299999998
 30
0.0
 40
0.5
100
AcDbArc
 50
0.0
 51
90.0
  0
ARC
  5
186
102
{ACAD_REACTORS
330
18D
330
18D
102
}
330
1F
100
AcDbEntity
  8
1
  6
Continuous
 62
     7
100
AcDbCircle
 10
25.70378817800552
 20
-19.120177
 30
0.0
 40
0.5
100
AcDbArc
 50
180.0
 51
-90.0
  0
ARC
  5
187
102
{ACAD_REACTORS
330
18D
330
18D
102
}
330
1F
100
AcDbEntity
  8
1
  6
Continuous
 62
     7
100
AcDbCircle
 10
37.00378717800601
 20
-19.120177
 30
0.0
 40
0.5
100
AcDbArc
 50
-90.0
 51
0.0
  0
ARC
  5
188
102
{ACAD_REACTORS
330
18D
330
18D
102
}
330
1F
100
AcDbEntity
  8
1
  6
Continuous
 62
     7
100
AcDbCircle
 10
25.70378817800552
 20
-19.120177
 30
0.0
 40
2.0
100
AcDbArc
 50
-179.9999999999998
 51
-90.0
  0
ARC
  5
189
102
{ACAD_REACTORS
330
18D
330
18D
102
}
330
1F
100
AcDbEntity
  8
1
  6
Continuous
 62
     7
100
AcDbCircle
 10
37.00378717800601
 20
-19.120177
 30
0.0
 40
2.0
100
AcDbArc
 50
-90.0
 51
0.0
  0
ARC
  5
18A
102
{ACAD_REACTORS
330
18D
330
18D
102
}
330
1F
100
AcDbEntity
  8
1
  6
Continuous
 62
     7
100
AcDbCircle
 10
37.00378717800601
 20
6.57981299999998
 30
0.0
 40
2.0
100
AcDbArc
 50
-0.0000000000001
 51
90.0
  0
ARC
  5
18B
102
{ACAD_REACTORS
330
18D
330
18D
102
}
330
1F
100
AcDbEntity
  8
1
  6
Continuous
 62
     7
100
AcDbCircle
 10
25.70378817800552
 20
6.57981299999998
 30
0.0
 40
2.0
100
AcDbArc
 50
90.0
 51
180.0
  0
HATCH
  5
18C
330
1F
100
AcDbEntity
  8
1
  6
Continuous
 62
     3
100
AcDbHatch
 10
0.0
 20
0.0
 30
0.0
210
0.0
220
0.0
230
1.0
  2
SOLID
 70
     1
 71
     1
 91
        2
 92
        1
 93
        8
 72
     2
 10
-13.29620782199399
 20
24.379823
 40
2.0
 50
0.0
 51
90.0
 73
     1
 72
     1
 10
-13.29620782199399
 20
26.379823
 11
-39.0
 21
26.379823
 72
     2
 10
-39.0
 20
24.379823
 40
2.0
 50
90.0
 51
180.0
 73
     1
 72
     1
 10
-41.0
 20
24.379823
 11
-41.0
 21
4.67982300000001
 72
     2
 10
-39.0
 20
4.679823000000005
 40
2.0
 50
179.9999999999999
 51
270.0
 73
     1
 72
     1
 10
-39.0
 20
2.679823000000006
 11
-13.29620782199399
 21
2.679823000000006
 72
     2
 10
-13.29620782199399
 20
4.679823000000005
 40
1.999999999999999
 50
270.0
 51
360.0
 73
     1
 72
     1
 10
-11.29620782199399
 20
4.679823000000006
 11
-11.29620782199399
 21
24.379823
 97
        8
330
180
330
126
330
181
330
127
330
182
330
128
330
183
330
129
 92
       16
 93
        8
 72
     2
 10
-39.0
 20
24.379823
 40
0.5
 50
90.0
 51
180.0
 73
     1
 72
     1
 10
-39.5
 20
24.379823
 11
-39.5
 21
4.67982300000001
 72
     2
 10
-39.0
 20
4.679823000000005
 40
0.5
 50
179.9999999999995
 51
270.0
 73
     1
 72
     1
 10
-39.0
 20
4.179823000000005
 11
-13.29620782199399
 21
4.179823000000005
 72
     2
 10
-13.29620782199399
 20
4.679823000000005
 40
0.5
 50
270.0
 51
360.0
 73
     1
 72
     1
 10
-12.79620782199399
 20
4.679823000000005
 11
-12.79620782199399
 21
24.379823
 72
     2
 10
-13.29620782199399
 20
24.379823
 40
0.5
 50
0.0
 51
90.0
 73
     1
 72
     1
 10
-13.29620782199399
 20
24.879823
 11
-39.0
 21
24.879823
 97
        8
330
17C
330
125
330
17F
330
122
330
17E
330
123
330
17D
330
124
 75
     0
 76
     1
 98
        1
 10
0.0
 20
0.0
  0
HATCH
  5
18D
330
1F
100
AcDbEntity
  8
1
  6
Continuous
 62
     3
100
AcDbHatch
 10
0.0
 20
0.0
 30
0.0
210
0.0
220
0.0
230
1.0
  2
SOLID
 70
     1
 71
     1
 91
        2
 92
        1
 93
        8
 72
     2
 10
37.00378717800601
 20
6.57981299999998
 40
2.0
 50
359.9999999999999
 51
450.0
 73
     1
 72
     1
 10
37.00378717800601
 20
8.57981299999998
 11
25.70378817800552
 21
8.57981299999998
 72
     2
 10
25.70378817800552
 20
6.57981299999998
 40
2.0
 50
90.0
 51
180.0
 73
     1
 72
     1
 10
23.70378817800552
 20
6.57981299999998
 11
23.70378817800552
 21
-19.12017700000001
 72
     2
 10
25.70378817800552
 20
-19.120177
 40
2.0
 50
180.0000000000002
 51
270.0
 73
     1
 72
     1
 10
25.70378817800552
 20
-21.120177
 11
37.00378717800601
 21
-21.120177
 72
     2
 10
37.00378717800601
 20
-19.120177
 40
2.0
 50
270.0
 51
360.0
 73
     1
 72
     1
 10
39.00378717800601
 20
-19.120177
 11
39.00378717800601
 21
6.579812999999977
 97
        8
330
18A
330
12E
330
18B
330
12F
330
188
330
130
330
189
330
131
 92
       16
 93
        8
 72
     2
 10
25.70378817800552
 20
6.57981299999998
 40
0.5
 50
90.0
 51
180.0
 73
     1
 72
     1
 10
25.20378817800552
 20
6.57981299999998
 11
25.20378817800552
 21
-19.120177
 72
     2
 10
25.70378817800552
 20
-19.120177
 40
0.5
 50
180.0
 51
270.0
 73
     1
 72
     1
 10
25.70378817800552
 20
-19.620177
 11
37.00378717800601
 21
-19.620177
 72
     2
 10
37.00378717800601
 20
-19.120177
 40
0.5
 50
270.0
 51
360.0
 73
     1
 72
     1
 10
37.50378717800601
 20
-19.120177
 11
37.50378717800601
 21
6.57981299999998
 72
     2
 10
37.00378717800601
 20
6.57981299999998
 40
0.5
 50
0.0
 51
90.0
 73
     1
 72
     1
 10
37.00378717800601
 20
7.07981299999998
 11
25.70378817800552
 21
7.07981299999998
 97
        8
330
184
330
12D
330
186
330
12A
330
187
330
12B
330
185
330
12C
 75
     0
 76
     1
 98
        1
 10
0.0
 20
0.0
  0
ENDSEC
  0
SECTION
  2
OBJECTS
  0
DICTIONARY
  5
C
330
0
100
AcDbDictionary
281
     1
  3
ACAD_GROUP
350
D
  3
ACAD_LAYOUT
350
1A
  3
ACAD_MLINESTYLE
350
17
  3
ACAD_PLOTSETTINGS
350
19
  3
ACAD_PLOTSTYLENAME
350
E
  0
DICTIONARY
  5
D
102
{ACAD_REACTORS
330
C
102
}
330
C
100
AcDbDictionary
281
     1
  0
DICTIONARY
  5
1A
102
{ACAD_REACTORS
330
C
102
}
330
C
100
AcDbDictionary
281
     1
  3
Layout1
350
1E
  3
Layout2
350
26
  3
Model
350
22
  0
DICTIONARY
  5
17
102
{ACAD_REACTORS
330
C
102
}
330
C
100
AcDbDictionary
281
     1
  3
Standard
350
18
  0
DICTIONARY
  5
19
102
{ACAD_REACTORS
330
C
102
}
330
C
100
AcDbDictionary
281
     1
  0
ACDBDICTIONARYWDFLT
  5
E
102
{ACAD_REACTORS
330
C
102
}
330
C
100
AcDbDictionary
281
     1
  3
Normal
350
F
100
AcDbDictionaryWithDefault
340
F
  0
LAYOUT
  5
1E
102
{ACAD_REACTORS
330
1A
102
}
330
1A
100
AcDbPlotSettings
  1

  2

  4

  6

 40
0.0
 41
0.0
 42
0.0
 43
0.0
 44
0.0
 45
0.0
 46
0.0
 47
0.0
 48
0.0
 49
0.0
140
0.0
141
0.0
142
1.0
143
1.0
 70
   688
 72
     0
 73
     0
 74
     5
  7

 75
    16
 76
     0
 77
     2
 78
   300
147
1.0
148
0.0
149
0.0
100
AcDbLayout
  1
Layout1
 70
     1
 71
     1
 10
0.0
 20
0.0
 11
0.0
 21
0.0
 12
0.0
 22
0.0
 32
0.0
 14
0.0
 24
0.0
 34
0.0
 15
0.0
 25
0.0
 35
0.0
146
0.0
 13
0.0
 23
0.0
 33
0.0
 16
1.0
 26
0.0
 36
0.0
 17
0.0
 27
1.0
 37
0.0
 76
     0
330
1B
  0
LAYOUT
  5
26
102
{ACAD_REACTORS
330
1A
102
}
330
1A
100
AcDbPlotSettings
  1

  2

  4

  6

 40
0.0
 41
0.0
 42
0.0
 43
0.0
 44
0.0
 45
0.0
 46
0.0
 47
0.0
 48
0.0
 49
0.0
140
0.0
141
0.0
142
1.0
143
1.0
 70
   688
 72
     0
 73
     0
 74
     5
  7

 75
    16
 76
     0
 77
     2
 78
   300
147
1.0
148
0.0
149
0.0
100
AcDbLayout
  1
Layout2
 70
     1
 71
     2
 10
0.0
 20
0.0
 11
0.0
 21
0.0
 12
0.0
 22
0.0
 32
0.0
 14
0.0
 24
0.0
 34
0.0
 15
0.0
 25
0.0
 35
0.0
146
0.0
 13
0.0
 23
0.0
 33
0.0
 16
1.0
 26
0.0
 36
0.0
 17
0.0
 27
1.0
 37
0.0
 76
     0
330
23
  0
LAYOUT
  5
22
102
{ACAD_REACTORS
330
1A
102
}
330
1A
100
AcDbPlotSettings
  1

  2

  4

  6

 40
0.0
 41
0.0
 42
0.0
 43
0.0
 44
0.0
 45
0.0
 46
0.0
 47
0.0
 48
0.0
 49
0.0
140
0.0
141
0.0
142
1.0
143
1.0
 70
  1712
 72
     0
 73
     0
 74
     0
  7

 75
     0
 76
     0
 77
     2
 78
   300
147
1.0
148
0.0
149
0.0
100
AcDbLayout
  1
Model
 70
     1
 71
     0
 10
0.0
 20
0.0
 11
0.0
 21
0.0
 12
0.0
 22
0.0
 32
0.0
 14
-53.296202821994
 24
-40.0525101559498
 34
0.0
 15
68.00378717800601
 25
42.879826
 35
0.0
146
0.0
 13
0.0
 23
0.0
 33
0.0
 16
1.0
 26
0.0
 36
0.0
 17
0.0
 27
1.0
 37
0.0
 76
     0
330
1F
  0
MLINESTYLE
  5
18
102
{ACAD_REACTORS
330
17
102
}
330
17
100
AcDbMlineStyle
  2
Standard
 70
     0
  3

 62
   256
 51
90.0
 52
90.0
 71
     2
 49
0.5
 62
   256
  6
BYLAYER
 49
-0.5
 62
   256
  6
BYLAYER
  0
ACDBPLACEHOLDER
  5
F
102
{ACAD_REACTORS
330
E
102
}
330
E
  0
ENDSEC
  0
EOF
