  0
SECTION
  2
HEADER
  9
$ACADVER
  1
AC1018
  9
$ACADMAINTVER
 70
     0
  9
$DWGCODEPAGE
  3
ANSI_1252
  9
$INSBASE
 10
0.0
 20
0.0
 30
0.0
  9
$EXTMIN
 10
-56.41259829907857
 20
-38.19972276150023
 30
0.0
  9
$EXTMAX
 10
67.5874017009214
 20
51.54894793040278
 30
0.0
  9
$LIMMIN
 10
0.0
 20
0.0
  9
$LIMMAX
 10
12.0
 20
9.0
  9
$ORTHOMODE
 70
     0
  9
$REGENMODE
 70
     1
  9
$FILLMODE
 70
     1
  9
$QTEXTMODE
 70
     0
  9
$MIRRTEXT
 70
     1
  9
$LTSCALE
 40
1.0
  9
$ATTMODE
 70
     1
  9
$TEXTSIZE
 40
0.2
  9
$TRACEWID
 40
0.05
  9
$TEXTSTYLE
  7
Standard
  9
$CLAYER
  8
0
  9
$CELTYPE
  6
ByLayer
  9
$CECOLOR
 62
   256
  9
$CELTSCALE
 40
1.0
  9
$DISPSILH
 70
     0
  9
$DIMSCALE
 40
1.0
  9
$DIMASZ
 40
0.18
  9
$DIMEXO
 40
0.0625
  9
$DIMDLI
 40
0.38
  9
$DIMRND
 40
0.0
  9
$DIMDLE
 40
0.0
  9
$DIMEXE
 40
0.18
  9
$DIMTP
 40
0.0
  9
$DIMTM
 40
0.0
  9
$DIMTXT
 40
0.18
  9
$DIMCEN
 40
0.09
  9
$DIMTSZ
 40
0.0
  9
$DIMTOL
 70
     0
  9
$DIMLIM
 70
     0
  9
$DIMTIH
 70
     1
  9
$DIMTOH
 70
     1
  9
$DIMSE1
 70
     0
  9
$DIMSE2
 70
     0
  9
$DIMTAD
 70
     0
  9
$DIMZIN
 70
     0
  9
$DIMBLK
  1

  9
$DIMASO
 70
     1
  9
$DIMSHO
 70
     1
  9
$DIMPOST
  1

  9
$DIMAPOST
  1

  9
$DIMALT
 70
     0
  9
$DIMALTD
 70
     2
  9
$DIMALTF
 40
25.4
  9
$DIMLFAC
 40
1.0
  9
$DIMTOFL
 70
     0
  9
$DIMTVP
 40
0.0
  9
$DIMTIX
 70
     0
  9
$DIMSOXD
 70
     0
  9
$DIMSAH
 70
     0
  9
$DIMBLK1
  1

  9
$DIMBLK2
  1

  9
$DIMSTYLE
  2
Standard
  9
$DIMCLRD
 70
     0
  9
$DIMCLRE
 70
     0
  9
$DIMCLRT
 70
     0
  9
$DIMTFAC
 40
1.0
  9
$DIMGAP
 40
0.09
  9
$DIMJUST
 70
     0
  9
$DIMSD1
 70
     0
  9
$DIMSD2
 70
     0
  9
$DIMTOLJ
 70
     1
  9
$DIMTZIN
 70
     0
  9
$DIMALTZ
 70
     0
  9
$DIMALTTZ
 70
     0
  9
$DIMUPT
 70
     0
  9
$DIMDEC
 70
     4
  9
$DIMTDEC
 70
     4
  9
$DIMALTU
 70
     2
  9
$DIMALTTD
 70
     2
  9
$DIMTXSTY
  7
Standard
  9
$DIMAUNIT
 70
     0
  9
$DIMADEC
 70
     0
  9
$DIMALTRND
 40
0.0
  9
$DIMAZIN
 70
     0
  9
$DIMDSEP
 70
    46
  9
$DIMATFIT
 70
     3
  9
$DIMFRAC
 70
     0
  9
$DIMLDRBLK
  1

  9
$DIMLUNIT
 70
     2
  9
$DIMLWD
 70
    -2
  9
$DIMLWE
 70
    -2
  9
$DIMTMOVE
 70
     0
  9
$LUNITS
 70
     2
  9
$LUPREC
 70
     4
  9
$SKETCHINC
 40
0.1
  9
$FILLETRAD
 40
0.5
  9
$AUNITS
 70
     0
  9
$AUPREC
 70
     0
  9
$MENU
  1
.
  9
$ELEVATION
 40
0.0
  9
$PELEVATION
 40
0.0
  9
$THICKNESS
 40
0.0
  9
$LIMCHECK
 70
     0
  9
$CHAMFERA
 40
0.5
  9
$CHAMFERB
 40
0.5
  9
$CHAMFERC
 40
1.0
  9
$CHAMFERD
 40
0.0
  9
$SKPOLY
 70
     0
  9
$TDCREATE
 40
2454483.383213611
  9
$TDUCREATE
 40
2454483.341546944
  9
$TDUPDATE
 40
2454483.383213622
  9
$TDUUPDATE
 40
2454483.341546956
  9
$TDINDWG
 40
0.0000000116
  9
$TDUSRTIMER
 40
0.0000000116
  9
$USRTIMER
 70
     1
  9
$ANGBASE
 50
0.0
  9
$ANGDIR
 70
     0
  9
$PDMODE
 70
     0
  9
$PDSIZE
 40
0.0
  9
$PLINEWID
 40
0.0
  9
$SPLFRAME
 70
     0
  9
$SPLINETYPE
 70
     6
  9
$SPLINESEGS
 70
     8
  9
$HANDSEED
  5
196
  9
$SURFTAB1
 70
     6
  9
$SURFTAB2
 70
     6
  9
$SURFTYPE
 70
     6
  9
$SURFU
 70
     6
  9
$SURFV
 70
     6
  9
$UCSBASE
  2

  9
$UCSNAME
  2

  9
$UCSORG
 10
0.0
 20
0.0
 30
0.0
  9
$UCSXDIR
 10
1.0
 20
0.0
 30
0.0
  9
$UCSYDIR
 10
0.0
 20
1.0
 30
0.0
  9
$UCSORTHOREF
  2

  9
$UCSORTHOVIEW
 70
     0
  9
$UCSORGTOP
 10
0.0
 20
0.0
 30
0.0
  9
$UCSORGBOTTOM
 10
0.0
 20
0.0
 30
0.0
  9
$UCSORGLEFT
 10
0.0
 20
0.0
 30
0.0
  9
$UCSORGRIGHT
 10
0.0
 20
0.0
 30
0.0
  9
$UCSORGFRONT
 10
0.0
 20
0.0
 30
0.0
  9
$UCSORGBACK
 10
0.0
 20
0.0
 30
0.0
  9
$PUCSBASE
  2

  9
$PUCSNAME
  2

  9
$PUCSORG
 10
0.0
 20
0.0
 30
0.0
  9
$PUCSXDIR
 10
1.0
 20
0.0
 30
0.0
  9
$PUCSYDIR
 10
0.0
 20
1.0
 30
0.0
  9
$PUCSORTHOREF
  2

  9
$PUCSORTHOVIEW
 70
     0
  9
$PUCSORGTOP
 10
0.0
 20
0.0
 30
0.0
  9
$PUCSORGBOTTOM
 10
0.0
 20
0.0
 30
0.0
  9
$PUCSORGLEFT
 10
0.0
 20
0.0
 30
0.0
  9
$PUCSORGRIGHT
 10
0.0
 20
0.0
 30
0.0
  9
$PUCSORGFRONT
 10
0.0
 20
0.0
 30
0.0
  9
$PUCSORGBACK
 10
0.0
 20
0.0
 30
0.0
  9
$USERI1
 70
     0
  9
$USERI2
 70
     0
  9
$USERI3
 70
     0
  9
$USERI4
 70
     0
  9
$USERI5
 70
     0
  9
$USERR1
 40
14.5
  9
$USERR2
 40
0.0
  9
$USERR3
 40
0.0
  9
$USERR4
 40
0.0
  9
$USERR5
 40
0.0
  9
$WORLDVIEW
 70
     1
  9
$SHADEDGE
 70
     3
  9
$SHADEDIF
 70
    70
  9
$TILEMODE
 70
     1
  9
$MAXACTVP
 70
    64
  9
$PINSBASE
 10
0.0
 20
0.0
 30
0.0
  9
$PLIMCHECK
 70
     0
  9
$PEXTMIN
 10
1.00000000000000E+20
 20
1.00000000000000E+20
 30
1.00000000000000E+20
  9
$PEXTMAX
 10
-1.00000000000000E+20
 20
-1.00000000000000E+20
 30
-1.00000000000000E+20
  9
$PLIMMIN
 10
0.0
 20
0.0
  9
$PLIMMAX
 10
12.0
 20
9.0
  9
$UNITMODE
 70
     0
  9
$VISRETAIN
 70
     1
  9
$PLINEGEN
 70
     0
  9
$PSLTSCALE
 70
     1
  9
$TREEDEPTH
 70
  3020
  9
$CMLSTYLE
  2
Standard
  9
$CMLJUST
 70
     0
  9
$CMLSCALE
 40
1.0
  9
$PROXYGRAPHICS
 70
     1
  9
$MEASUREMENT
 70
     1
  9
$CELWEIGHT
370
    -1
  9
$ENDCAPS
280
     0
  9
$JOINSTYLE
280
     0
  9
$LWDISPLAY
290
     0
  9
$INSUNITS
 70
     1
  9
$HYPERLINKBASE
  1

  9
$STYLESHEET
  1

  9
$XEDIT
290
     1
  9
$CEPSNTYPE
380
     0
  9
$PSTYLEMODE
290
     1
  9
$FINGERPRINTGUID
  2
{B67576B1-70DE-4846-8F88-97CE5BE5B4EF}
  9
$VERSIONGUID
  2
{FAEB1C32-E019-11D5-929B-00C0DF256EC4}
  9
$EXTNAMES
290
     1
  9
$PSVPSCALE
 40
0.0
  9
$OLESTARTUP
290
     0
  9
$SORTENTS
280
   127
  9
$INDEXCTL
280
     0
  9
$HIDETEXT
280
     1
  9
$XCLIPFRAME
290
     0
  9
$HALOGAP
280
     0
  9
$OBSCOLOR
 70
   257
  9
$OBSLTYPE
280
     0
  9
$INTERSECTIONDISPLAY
280
     0
  9
$INTERSECTIONCOLOR
 70
   257
  9
$DIMASSOC
280
     2
  9
$PROJECTNAME
  1

  0
ENDSEC
  0
SECTION
  2
CLASSES
  0
CLASS
  1
ACDBDICTIONARYWDFLT
  2
AcDbDictionaryWithDefault
  3
ObjectDBX Classes
 90
        0
 91
        3
280
     0
281
     0
  0
ENDSEC
  0
SECTION
  2
TABLES
  0
TABLE
  2
VPORT
  5
8
330
0
100
AcDbSymbolTable
 70
     1
  0
VPORT
  5
29
330
8
100
AcDbSymbolTableRecord
100
AcDbViewportTableRecord
  2
*Active
 70
     0
 10
0.0
 20
0.0
 11
1.0
 21
1.0
 12
5.58740170092142
 22
6.67461258445127
 13
0.0
 23
0.0
 14
0.5
 24
0.5
 15
0.5
 25
0.5
 16
0.0
 26
0.0
 36
1.0
 17
0.0
 27
0.0
 37
0.0
 40
98.72353776109333
 41
1.60267857142857
 42
50.0
 43
0.0
 44
0.0
 50
0.0
 51
0.0
 71
     0
 72
   100
 73
     1
 74
     3
 75
     0
 76
     0
 77
     0
 78
     0
281
     0
 65
     1
110
0.0
120
0.0
130
0.0
111
1.0
121
0.0
131
0.0
112
0.0
122
1.0
132
0.0
 79
     0
146
0.0
  0
ENDTAB
  0
TABLE
  2
LTYPE
  5
5
330
0
100
AcDbSymbolTable
 70
     8
  0
LTYPE
  5
14
330
5
100
AcDbSymbolTableRecord
100
AcDbLinetypeTableRecord
  2
ByBlock
 70
     0
  3

 72
    65
 73
     0
 40
0.0
  0
LTYPE
  5
15
330
5
100
AcDbSymbolTableRecord
100
AcDbLinetypeTableRecord
  2
ByLayer
 70
     0
  3

 72
    65
 73
     0
 40
0.0
  0
LTYPE
  5
16
330
5
100
AcDbSymbolTableRecord
100
AcDbLinetypeTableRecord
  2
Continuous
 70
     0
  3
Solid line
 72
    65
 73
     0
 40
0.0
  0
LTYPE
  5
2A
330
5
100
AcDbSymbolTableRecord
100
AcDbLinetypeTableRecord
  2
DASHED
 70
     0
  3
Dashed
 72
    65
 73
     2
 40
15.0
 49
7.0
 74
     0
 49
-8.0
 74
     0
  0
LTYPE
  5
2B
330
5
100
AcDbSymbolTableRecord
100
AcDbLinetypeTableRecord
  2
DOTTED
 70
     0
  3
Dotted
 72
    65
 73
     2
 40
1.0
 49
0.0
 74
     0
 49
-1.0
 74
     0
  0
LTYPE
  5
2C
330
5
100
AcDbSymbolTableRecord
100
AcDbLinetypeTableRecord
  2
DOT_CENTER
 70
     0
  3
Dot_Center
 72
    65
 73
     4
 40
14.0
 49
12.0
 74
     0
 49
-1.0
 74
     0
 49
0.0
 74
     0
 49
-1.0
 74
     0
  0
LTYPE
  5
2D
330
5
100
AcDbSymbolTableRecord
100
AcDbLinetypeTableRecord
  2
LONG_DASHED
 70
     0
  3
Long_Dashed
 72
    65
 73
     2
 40
15.0
 49
10.0
 74
     0
 49
-5.0
 74
     0
  0
LTYPE
  5
2E
330
5
100
AcDbSymbolTableRecord
100
AcDbLinetypeTableRecord
  2
DASH_CENTER
 70
     0
  3
Dash_Center
 72
    65
 73
     4
 40
14.0
 49
11.0
 74
     0
 49
-1.0
 74
     0
 49
1.0
 74
     0
 49
-1.0
 74
     0
  0
LTYPE
  5
2F
330
5
100
AcDbSymbolTableRecord
100
AcDbLinetypeTableRecord
  2
PHANTOM
 70
     0
  3
Phantom
 72
    65
 73
     6
 40
13.0
 49
10.0
 74
     0
 49
-1.0
 74
     0
 49
0.0
 74
     0
 49
-1.0
 74
     0
 49
0.0
 74
     0
 49
-1.0
 74
     0
  0
LTYPE
  5
30
330
5
100
AcDbSymbolTableRecord
100
AcDbLinetypeTableRecord
  2
CENTER_DASH_DASH
 70
     0
  3
Center_Dash_Dash
 72
    65
 73
     6
 40
14.0
 49
9.0
 74
     0
 49
-1.0
 74
     0
 49
1.0
 74
     0
 49
-1.0
 74
     0
 49
1.0
 74
     0
 49
-1.0
 74
     0
  0
ENDTAB
  0
TABLE
  2
LAYER
  5
2
330
0
100
AcDbSymbolTable
 70
     2
  0
LAYER
  5
10
330
2
100
AcDbSymbolTableRecord
100
AcDbLayerTableRecord
  2
0
 70
     0
 62
     7
  6
Continuous
370
    -3
390
F
  0
LAYER
  5
31
330
2
100
AcDbSymbolTableRecord
100
AcDbLayerTableRecord
  2
1
 70
     0
 62
     7
  6
Continuous
370
    -3
390
F
  0
ENDTAB
  0
TABLE
  2
STYLE
  5
3
330
0
100
AcDbSymbolTable
 70
     1
  0
STYLE
  5
11
330
3
100
AcDbSymbolTableRecord
100
AcDbTextStyleTableRecord
  2
Standard
 70
     0
 40
0.0
 41
1.0
 50
0.0
 71
     0
 42
0.2
  3
txt
  4

  0
ENDTAB
  0
TABLE
  2
VIEW
  5
6
330
0
100
AcDbSymbolTable
 70
     0
  0
ENDTAB
  0
TABLE
  2
UCS
  5
7
330
0
100
AcDbSymbolTable
 70
     0
  0
ENDTAB
  0
TABLE
  2
APPID
  5
9
330
0
100
AcDbSymbolTable
 70
     1
  0
APPID
  5
12
330
9
100
AcDbSymbolTableRecord
100
AcDbRegAppTableRecord
  2
ACAD
 70
     0
  0
ENDTAB
  0
TABLE
  2
DIMSTYLE
  5
A
330
0
100
AcDbSymbolTable
 70
     1
100
AcDbDimStyleTable
  0
DIMSTYLE
105
27
330
A
100
AcDbSymbolTableRecord
100
AcDbDimStyleTableRecord
  2
Standard
 70
     0
340
11
  0
ENDTAB
  0
TABLE
  2
BLOCK_RECORD
  5
1
330
0
100
AcDbSymbolTable
 70
     1
  0
BLOCK_RECORD
  5
1F
330
1
100
AcDbSymbolTableRecord
100
AcDbBlockTableRecord
  2
*Model_Space
340
22
  0
BLOCK_RECORD
  5
1B
330
1
100
AcDbSymbolTableRecord
100
AcDbBlockTableRecord
  2
*Paper_Space
340
1E
  0
BLOCK_RECORD
  5
23
330
1
100
AcDbSymbolTableRecord
100
AcDbBlockTableRecord
  2
*Paper_Space0
340
26
  0
ENDTAB
  0
ENDSEC
  0
SECTION
  2
BLOCKS
  0
BLOCK
  5
20
330
1F
100
AcDbEntity
  8
0
100
AcDbBlockBegin
  2
*Model_Space
 70
     0
 71
     0
 10
0.0
 20
0.0
 30
0.0
  3
*Model_Space
  1

  0
ENDBLK
  5
21
330
1F
100
AcDbEntity
  8
0
100
AcDbBlockEnd
  0
BLOCK
  5
1C
330
1B
100
AcDbEntity
 67
     1
  8
0
100
AcDbBlockBegin
  2
*Paper_Space
 70
     0
 71
     0
 10
0.0
 20
0.0
 30
0.0
  3
*Paper_Space
  1

  0
ENDBLK
  5
1D
330
1B
100
AcDbEntity
 67
     1
  8
0
100
AcDbBlockEnd
  0
BLOCK
  5
24
330
23
100
AcDbEntity
  8
0
100
AcDbBlockBegin
  2
*Paper_Space0
 70
     0
 71
     0
 10
0.0
 20
0.0
 30
0.0
  3
*Paper_Space0
  1

  0
ENDBLK
  5
25
330
23
100
AcDbEntity
  8
0
100
AcDbBlockEnd
  0
ENDSEC
  0
SECTION
  2
ENTITIES
  0
LINE
  5
32
330
1F
100
AcDbEntity
  8
1
  6
DOT_CENTER
 62
     2
100
AcDbLine
 10
-25.91259829907857
 20
-18.45105206959723
 30
0.0
 11
-25.91259829907857
 21
-21.78999032159643
 31
0.0
  0
LINE
  5
33
330
1F
100
AcDbEntity
  8
1
  6
DASHED
 62
     2
100
AcDbLine
 10
-23.41259829907857
 20
-15.20105206959723
 30
0.0
 11
-28.41259829907857
 21
-15.20105206959723
 31
0.0
  0
LINE
  5
34
330
1F
100
AcDbEntity
  8
1
  6
Continuous
 62
     7
100
AcDbLine
 10
-30.16259829907857
 20
-16.95105206959723
 30
0.0
 11
-28.91259829907857
 21
-16.95105206959723
 31
0.0
  0
LINE
  5
35
330
1F
100
AcDbEntity
  8
1
  6
DASHED
 62
     2
100
AcDbLine
 10
-28.41259829907857
 20
-15.20105206959723
 30
0.0
 11
-30.16259829907857
 21
-16.95105206959723
 31
0.0
  0
LINE
  5
36
330
1F
100
AcDbEntity
  8
1
  6
Continuous
 62
     7
100
AcDbLine
 10
-28.41259829907857
 20
-13.45105206959723
 30
0.0
 11
-32.41259829907857
 21
-13.45105206959723
 31
0.0
  0
LINE
  5
37
330
1F
100
AcDbEntity
  8
1
  6
DASHED
 62
     2
100
AcDbLine
 10
-28.41259829907857
 20
-13.45105206959723
 30
0.0
 11
-28.41259829907857
 21
-15.20105206959723
 31
0.0
  0
LINE
  5
38
330
1F
100
AcDbEntity
  8
1
  6
Continuous
 62
     7
100
AcDbLine
 10
-21.66259829907857
 20
-16.95105206959723
 30
0.0
 11
-19.41259829907857
 21
-16.95105206959724
 31
0.0
  0
LINE
  5
39
330
1F
100
AcDbEntity
  8
1
  6
DASHED
 62
     2
100
AcDbLine
 10
-23.41259829907857
 20
-15.20105206959723
 30
0.0
 11
-21.66259829907857
 21
-16.95105206959723
 31
0.0
  0
LINE
  5
3A
330
1F
100
AcDbEntity
  8
1
  6
Continuous
 62
     7
100
AcDbLine
 10
-23.41259829907857
 20
-13.45105206959723
 30
0.0
 11
-28.41259829907857
 21
-13.45105206959723
 31
0.0
  0
LINE
  5
3B
330
1F
100
AcDbEntity
  8
1
  6
DASHED
 62
     2
100
AcDbLine
 10
-23.41259829907857
 20
-13.45105206959723
 30
0.0
 11
-23.41259829907857
 21
-15.20105206959723
 31
0.0
  0
LINE
  5
3C
330
1F
100
AcDbEntity
  8
1
  6
DOT_CENTER
 62
     2
100
AcDbLine
 10
-25.91259829907855
 20
8.0489479304028
 30
0.0
 11
-25.91259829907857
 21
-18.45105206959723
 31
0.0
  0
LINE
  5
3D
330
1F
100
AcDbEntity
  8
1
  6
DASHED
 62
     2
100
AcDbLine
 10
-16.30373094907637
 20
-25.85105206959723
 30
0.0
 11
-16.30373094907637
 21
-20.05105206959722
 31
0.0
  0
LINE
  5
3E
330
1F
100
AcDbEntity
  8
1
  6
Continuous
 62
     7
100
AcDbLine
 10
-17.91259829907857
 20
-18.70105206959723
 30
0.0
 11
-17.91259829907857
 21
-16.95105206959724
 31
0.0
  0
LINE
  5
3F
330
1F
100
AcDbEntity
  8
1
  6
DASHED
 62
     2
100
AcDbLine
 10
-16.30373094907637
 20
-20.05105206959722
 30
0.0
 11
-17.91259829907857
 21
-18.70105206959723
 31
0.0
  0
LINE
  5
40
330
1F
100
AcDbEntity
  8
1
  6
Continuous
 62
     7
100
AcDbLine
 10
-15.41259829907857
 20
-20.05105206959722
 30
0.0
 11
-15.41259829907857
 21
-16.95105206959724
 31
0.0
  0
LINE
  5
41
330
1F
100
AcDbEntity
  8
1
  6
DASHED
 62
     2
100
AcDbLine
 10
-15.41259829907857
 20
-20.05105206959722
 30
0.0
 11
-16.30373094907637
 21
-20.05105206959722
 31
0.0
  0
LINE
  5
42
330
1F
100
AcDbEntity
  8
1
  6
Continuous
 62
     7
100
AcDbLine
 10
-17.91259829907857
 20
-27.20105206959723
 30
0.0
 11
-17.91259829907857
 21
-18.70105206959723
 31
0.0
  0
LINE
  5
43
330
1F
100
AcDbEntity
  8
1
  6
DASHED
 62
     2
100
AcDbLine
 10
-16.30373094907637
 20
-25.85105206959723
 30
0.0
 11
-17.91259829907857
 21
-27.20105206959723
 31
0.0
  0
LINE
  5
44
330
1F
100
AcDbEntity
  8
1
  6
Continuous
 62
     7
100
AcDbLine
 10
-15.41259829907857
 20
-25.85105206959723
 30
0.0
 11
-15.41259829907857
 21
-20.05105206959722
 31
0.0
  0
LINE
  5
45
330
1F
100
AcDbEntity
  8
1
  6
DASHED
 62
     2
100
AcDbLine
 10
-15.41259829907857
 20
-25.85105206959723
 30
0.0
 11
-16.30373094907637
 21
-25.85105206959723
 31
0.0
  0
LINE
  5
46
330
1F
100
AcDbEntity
  8
1
  6
DOT_CENTER
 62
     2
100
AcDbLine
 10
11.08740170092142
 20
-22.95105206959721
 30
0.0
 11
-19.41259829907857
 21
-22.95105206959723
 31
0.0
  0
LINE
  5
47
330
1F
100
AcDbEntity
  8
1
  6
DOT_CENTER
 62
     2
100
AcDbLine
 10
-33.99957400682146
 20
-29.95105206959723
 30
0.0
 11
-17.23197895303308
 21
-29.95105206959723
 31
0.0
  0
LINE
  5
48
330
1F
100
AcDbEntity
  8
1
  6
DOT_CENTER
 62
     2
100
AcDbLine
 10
-25.91259829907857
 20
-21.78999032159643
 30
0.0
 11
-25.91259829907857
 21
-38.19972276150023
 31
0.0
  0
LINE
  5
49
330
1F
100
AcDbEntity
  8
1
  6
Continuous
 62
     7
100
AcDbLine
 10
-17.97958559718637
 20
-28.95105206959723
 30
0.0
 11
-15.42303311330318
 21
-28.95105206959723
 31
0.0
  0
LINE
  5
4A
330
1F
100
AcDbEntity
  8
1
  6
Continuous
 62
     7
100
AcDbLine
 10
-15.41259829907857
 20
-28.76946568787562
 30
0.0
 11
-15.41259829907857
 21
-29.45105206959723
 31
0.0
  0
LINE
  5
4B
330
1F
100
AcDbEntity
  8
1
  6
Continuous
 62
     7
100
AcDbLine
 10
-15.41259829907857
 20
-28.70105206959723
 30
0.0
 11
-15.41259829907857
 21
-25.85105206959723
 31
0.0
  0
LINE
  5
4C
330
1F
100
AcDbEntity
  8
1
  6
Continuous
 62
     7
100
AcDbLine
 10
-17.91259829907857
 20
-16.95105206959724
 30
0.0
 11
-15.41259829907857
 21
-16.95105206959724
 31
0.0
  0
LINE
  5
4D
330
1F
100
AcDbEntity
  8
1
  6
Continuous
 62
     7
100
AcDbLine
 10
-17.91259829907857
 20
-28.70105206959723
 30
0.0
 11
-17.91259829907857
 21
-27.20105206959723
 31
0.0
  0
LINE
  5
4E
330
1F
100
AcDbEntity
  8
1
  6
Continuous
 62
     7
100
AcDbLine
 10
-16.61259829907857
 20
-31.10105206959723
 30
0.0
 11
-22.01259829907858
 21
-35.15105206959723
 31
0.0
  0
LINE
  5
4F
330
1F
100
AcDbEntity
  8
1
  6
Continuous
 62
     7
100
AcDbLine
 10
-19.41381799269477
 20
-30.07696683980933
 30
0.0
 11
-18.11259829907857
 21
-29.10105206959723
 31
0.0
  0
LINE
  5
50
330
1F
100
AcDbEntity
  8
1
  6
Continuous
 62
     7
100
AcDbLine
 10
-28.91259829907857
 20
-24.18477077226183
 30
0.0
 11
-28.91259829907857
 21
-29.95105206959723
 31
0.0
  0
LINE
  5
51
330
1F
100
AcDbEntity
  8
1
  6
Continuous
 62
     7
100
AcDbLine
 10
-28.91259829907857
 20
-24.18477077226183
 30
0.0
 11
-27.29721368369395
 21
-27.28969147082702
 31
0.0
  0
LINE
  5
52
330
1F
100
AcDbEntity
  8
1
  6
Continuous
 62
     7
100
AcDbLine
 10
-28.91259829907857
 20
-16.95105206959723
 30
0.0
 11
-21.66259829907857
 21
-16.95105206959723
 31
0.0
  0
LINE
  5
53
330
1F
100
AcDbEntity
  8
1
  6
Continuous
 62
     7
100
AcDbLine
 10
-28.91259829907857
 20
-16.95105206959723
 30
0.0
 11
-28.91259829907857
 21
-24.18477077226183
 31
0.0
  0
LINE
  5
54
330
1F
100
AcDbEntity
  8
1
  6
Continuous
 62
     7
100
AcDbLine
 10
-19.41259829907857
 20
-13.45105206959723
 30
0.0
 11
-23.41259829907857
 21
-13.45105206959723
 31
0.0
  0
LINE
  5
55
330
1F
100
AcDbEntity
  8
1
  6
Continuous
 62
     7
100
AcDbLine
 10
-19.41259829907857
 20
-16.95105206959724
 30
0.0
 11
-19.41259829907857
 21
-13.45105206959723
 31
0.0
  0
LINE
  5
56
330
1F
100
AcDbEntity
  8
1
  6
Continuous
 62
     7
100
AcDbLine
 10
-32.41259829907857
 20
-16.95105206959723
 30
0.0
 11
-32.41259829907857
 21
-29.95105206959723
 31
0.0
  0
LINE
  5
57
330
1F
100
AcDbEntity
  8
1
  6
Continuous
 62
     7
100
AcDbLine
 10
-32.41259829907857
 20
-16.95105206959723
 30
0.0
 11
-30.16259829907857
 21
-16.95105206959723
 31
0.0
  0
LINE
  5
58
330
1F
100
AcDbEntity
  8
1
  6
Continuous
 62
     7
100
AcDbLine
 10
-32.41259829907857
 20
-13.45105206959723
 30
0.0
 11
-51.41259829907857
 21
-13.45105206959723
 31
0.0
  0
LINE
  5
59
330
1F
100
AcDbEntity
  8
1
  6
Continuous
 62
     7
100
AcDbLine
 10
-32.41259829907857
 20
-13.45105206959723
 30
0.0
 11
-32.41259829907857
 21
-16.95105206959723
 31
0.0
  0
LINE
  5
5A
330
1F
100
AcDbEntity
  8
1
  6
Continuous
 62
     7
100
AcDbLine
 10
-15.41259829907857
 20
-15.45105206959724
 30
0.0
 11
-15.41259829907857
 21
-16.95105206959724
 31
0.0
  0
LINE
  5
5B
330
1F
100
AcDbEntity
  8
1
  6
Continuous
 62
     7
100
AcDbLine
 10
-7.41259829907857
 20
-13.45105206959724
 30
0.0
 11
-19.41259829907857
 21
-13.45105206959723
 31
0.0
  0
LINE
  5
5C
330
1F
100
AcDbEntity
  8
1
  6
Continuous
 62
     7
100
AcDbLine
 10
-15.41259829907857
 20
-15.45105206959724
 30
0.0
 11
-13.91259829907857
 21
-15.45105206959724
 31
0.0
  0
LINE
  5
5D
330
1F
100
AcDbEntity
  8
1
  6
Continuous
 62
     7
100
AcDbLine
 10
-13.91259829907857
 20
-15.45105206959724
 30
0.0
 11
-13.91259829907857
 21
-16.95105206959724
 31
0.0
  0
LINE
  5
5E
330
1F
100
AcDbEntity
  8
1
  6
Continuous
 62
     7
100
AcDbLine
 10
-11.91259829907857
 20
-26.45105206959723
 30
0.0
 11
-7.91259829907857
 21
-26.45105206959723
 31
0.0
  0
LINE
  5
5F
330
1F
100
AcDbEntity
  8
1
  6
Continuous
 62
     7
100
AcDbLine
 10
-7.41259829907857
 20
-25.95105206959723
 30
0.0
 11
-7.41259829907857
 21
-22.95105206959724
 31
0.0
  0
LINE
  5
60
330
1F
100
AcDbEntity
  8
1
  6
Continuous
 62
     7
100
AcDbLine
 10
-7.41259829907857
 20
-22.95105206959724
 30
0.0
 11
-12.41259829907857
 21
-22.95105206959724
 31
0.0
  0
LINE
  5
61
330
1F
100
AcDbEntity
  8
1
  6
Continuous
 62
     7
100
AcDbLine
 10
-12.41259829907857
 20
-22.95105206959724
 30
0.0
 11
-12.41259829907857
 21
-25.95105206959723
 31
0.0
  0
LINE
  5
62
330
1F
100
AcDbEntity
  8
1
  6
Continuous
 62
     7
100
AcDbLine
 10
0.08740170092143
 20
-26.45105206959723
 30
0.0
 11
4.08740170092142
 21
-26.45105206959723
 31
0.0
  0
LINE
  5
63
330
1F
100
AcDbEntity
  8
1
  6
Continuous
 62
     7
100
AcDbLine
 10
4.58740170092142
 20
-25.95105206959723
 30
0.0
 11
4.58740170092142
 21
-19.95105206959724
 31
0.0
  0
LINE
  5
64
330
1F
100
AcDbEntity
  8
1
  6
Continuous
 62
     7
100
AcDbLine
 10
4.58740170092142
 20
-19.95105206959724
 30
0.0
 11
-0.41259829907857
 21
-19.95105206959724
 31
0.0
  0
LINE
  5
65
330
1F
100
AcDbEntity
  8
1
  6
Continuous
 62
     7
100
AcDbLine
 10
-0.41259829907857
 20
-19.95105206959724
 30
0.0
 11
-0.41259829907857
 21
-25.95105206959723
 31
0.0
  0
LINE
  5
66
330
1F
100
AcDbEntity
  8
1
  6
Continuous
 62
     7
100
AcDbLine
 10
-13.91259829907857
 20
-16.95105206959724
 30
0.0
 11
-10.41259829907857
 21
-16.95105206959724
 31
0.0
  0
LINE
  5
67
330
1F
100
AcDbEntity
  8
1
  6
Continuous
 62
     7
100
AcDbLine
 10
-10.41259829907857
 20
-16.95105206959724
 30
0.0
 11
-10.41259829907857
 21
-18.45105206959724
 31
0.0
  0
LINE
  5
68
330
1F
100
AcDbEntity
  8
1
  6
Continuous
 62
     7
100
AcDbLine
 10
-10.41259829907857
 20
-18.45105206959724
 30
0.0
 11
-12.41259829907857
 21
-18.45105206959724
 31
0.0
  0
LINE
  5
69
330
1F
100
AcDbEntity
  8
1
  6
Continuous
 62
     7
100
AcDbLine
 10
-12.41259829907857
 20
-18.45105206959724
 30
0.0
 11
-12.41259829907857
 21
-21.45105206959724
 31
0.0
  0
LINE
  5
6A
330
1F
100
AcDbEntity
  8
1
  6
Continuous
 62
     7
100
AcDbLine
 10
-12.41259829907857
 20
-21.45105206959724
 30
0.0
 11
-6.83145946899437
 21
-21.45105206959724
 31
0.0
  0
LINE
  5
6B
330
1F
100
AcDbEntity
  8
1
  6
Continuous
 62
     7
100
AcDbLine
 10
-6.28014276704486
 20
-21.05368547349622
 30
0.0
 11
-5.41259829907857
 21
-18.45105206959724
 31
0.0
  0
LINE
  5
6C
330
1F
100
AcDbEntity
  8
1
  6
Continuous
 62
     7
100
AcDbLine
 10
-5.41259829907857
 20
-18.45105206959724
 30
0.0
 11
-7.41259829907857
 21
-18.45105206959724
 31
0.0
  0
LINE
  5
6D
330
1F
100
AcDbEntity
  8
1
  6
Continuous
 62
     7
100
AcDbLine
 10
-7.41259829907857
 20
-18.45105206959724
 30
0.0
 11
-7.41259829907857
 21
-16.95105206959724
 31
0.0
  0
LINE
  5
6E
330
1F
100
AcDbEntity
  8
1
  6
Continuous
 62
     7
100
AcDbLine
 10
-7.41259829907857
 20
-16.95105206959724
 30
0.0
 11
4.58740170092142
 21
-16.95105206959724
 31
0.0
  0
LINE
  5
6F
330
1F
100
AcDbEntity
  8
1
  6
Continuous
 62
     7
100
AcDbLine
 10
-4.33145946899437
 20
-19.95105206959724
 30
0.0
 11
-1.91259829907857
 21
-19.95105206959724
 31
0.0
  0
LINE
  5
70
330
1F
100
AcDbEntity
  8
1
  6
Continuous
 62
     7
100
AcDbLine
 10
-1.91259829907857
 20
-19.95105206959724
 30
0.0
 11
-1.91259829907857
 21
-25.95105206959723
 31
0.0
  0
LINE
  5
71
330
1F
100
AcDbEntity
  8
1
  6
Continuous
 62
     7
100
AcDbLine
 10
-2.41259829907857
 20
-26.45105206959723
 30
0.0
 11
-5.41259829907857
 21
-26.45105206959723
 31
0.0
  0
LINE
  5
72
330
1F
100
AcDbEntity
  8
1
  6
Continuous
 62
     7
100
AcDbLine
 10
-5.91259829907857
 20
-25.95105206959723
 30
0.0
 11
-5.91259829907857
 21
-22.95105206959724
 31
0.0
  0
LINE
  5
73
330
1F
100
AcDbEntity
  8
1
  6
Continuous
 62
     7
100
AcDbLine
 10
-5.91259829907857
 20
-22.95105206959724
 30
0.0
 11
-5.75032063891017
 21
-22.95105206959724
 31
0.0
  0
LINE
  5
74
330
1F
100
AcDbEntity
  8
1
  6
Continuous
 62
     7
100
AcDbLine
 10
-5.19900393696066
 20
-22.55368547349622
 30
0.0
 11
-4.33145946899437
 21
-19.95105206959724
 31
0.0
  0
LINE
  5
75
330
1F
100
AcDbEntity
  8
1
  6
Continuous
 62
     7
100
AcDbLine
 10
-15.41259829907857
 20
-29.45105206959723
 30
0.0
 11
47.58740170092142
 21
-29.45105206959723
 31
0.0
  0
LINE
  5
76
330
1F
100
AcDbEntity
  8
1
  6
Continuous
 62
     7
100
AcDbLine
 10
4.58740170092142
 20
-16.95105206959724
 30
0.0
 11
4.58740170092142
 21
-12.95105206959724
 31
0.0
  0
LINE
  5
77
330
1F
100
AcDbEntity
  8
1
  6
Continuous
 62
     7
100
AcDbLine
 10
4.58740170092142
 20
-12.95105206959724
 30
0.0
 11
7.08740170092142
 21
-12.95105206959724
 31
0.0
  0
LINE
  5
78
330
1F
100
AcDbEntity
  8
1
  6
Continuous
 62
     7
100
AcDbLine
 10
7.08740170092142
 20
-12.95105206959724
 30
0.0
 11
7.08740170092142
 21
-10.95105206959724
 31
0.0
  0
LINE
  5
79
330
1F
100
AcDbEntity
  8
1
  6
Continuous
 62
     7
100
AcDbLine
 10
7.08740170092142
 20
-10.95105206959724
 30
0.0
 11
10.58740170092142
 21
-10.95105206959724
 31
0.0
  0
LINE
  5
7A
330
1F
100
AcDbEntity
  8
1
  6
Continuous
 62
     7
100
AcDbLine
 10
10.58740170092142
 20
-10.95105206959724
 30
0.0
 11
10.58740170092142
 21
-12.95105206959724
 31
0.0
  0
LINE
  5
7B
330
1F
100
AcDbEntity
  8
1
  6
Continuous
 62
     7
100
AcDbLine
 10
10.58740170092142
 20
-12.95105206959724
 30
0.0
 11
15.58740170092142
 21
-12.95105206959724
 31
0.0
  0
LINE
  5
7C
330
1F
100
AcDbEntity
  8
1
  6
Continuous
 62
     7
100
AcDbLine
 10
15.58740170092142
 20
-12.95105206959724
 30
0.0
 11
15.58740170092142
 21
3.04894793040276
 31
0.0
  0
LINE
  5
7D
330
1F
100
AcDbEntity
  8
1
  6
Continuous
 62
     7
100
AcDbLine
 10
15.58740170092142
 20
3.04894793040276
 30
0.0
 11
10.58740170092142
 21
3.04894793040276
 31
0.0
  0
LINE
  5
7E
330
1F
100
AcDbEntity
  8
1
  6
Continuous
 62
     7
100
AcDbLine
 10
10.58740170092142
 20
3.04894793040276
 30
0.0
 11
10.58740170092142
 21
1.04894793040276
 31
0.0
  0
LINE
  5
7F
330
1F
100
AcDbEntity
  8
1
  6
Continuous
 62
     7
100
AcDbLine
 10
10.58740170092142
 20
1.04894793040276
 30
0.0
 11
7.08740170092142
 21
1.04894793040276
 31
0.0
  0
LINE
  5
80
330
1F
100
AcDbEntity
  8
1
  6
Continuous
 62
     7
100
AcDbLine
 10
7.08740170092142
 20
3.04894793040276
 30
0.0
 11
4.58740170092142
 21
3.04894793040276
 31
0.0
  0
LINE
  5
81
330
1F
100
AcDbEntity
  8
1
  6
Continuous
 62
     7
100
AcDbLine
 10
15.58740170092142
 20
-15.95105206959724
 30
0.0
 11
7.08740170092142
 21
-15.95105206959724
 31
0.0
  0
LINE
  5
82
330
1F
100
AcDbEntity
  8
1
  6
Continuous
 62
     7
100
AcDbLine
 10
7.08740170092142
 20
-15.95105206959724
 30
0.0
 11
6.58740170092142
 21
-19.95105206959724
 31
0.0
  0
LINE
  5
83
330
1F
100
AcDbEntity
  8
1
  6
Continuous
 62
     7
100
AcDbLine
 10
6.58740170092142
 20
-19.95105206959724
 30
0.0
 11
6.58740170092142
 21
-26.45105206959723
 31
0.0
  0
LINE
  5
84
330
1F
100
AcDbEntity
  8
1
  6
Continuous
 62
     7
100
AcDbLine
 10
18.58740170092142
 20
-12.95105206959724
 30
0.0
 11
18.58740170092142
 21
-8.95105206959724
 31
0.0
  0
LINE
  5
85
330
1F
100
AcDbEntity
  8
1
  6
Continuous
 62
     7
100
AcDbLine
 10
18.58740170092142
 20
-8.95105206959724
 30
0.0
 11
22.12327268321573
 21
-6.12235528376179
 31
0.0
  0
LINE
  5
86
330
1F
100
AcDbEntity
  8
1
  6
Continuous
 62
     7
100
AcDbLine
 10
22.12327268321573
 20
-3.77974885543269
 30
0.0
 11
18.58740170092142
 21
-0.95105206959724
 31
0.0
  0
LINE
  5
87
330
1F
100
AcDbEntity
  8
1
  6
Continuous
 62
     7
100
AcDbLine
 10
18.58740170092142
 20
-7.03011479836739
 30
0.0
 11
18.58740170092142
 21
-2.8719893408271
 31
0.0
  0
LINE
  5
88
330
1F
100
AcDbEntity
  8
1
  6
Continuous
 62
     7
100
AcDbLine
 10
18.58740170092142
 20
-2.8719893408271
 30
0.0
 11
21.18623011188413
 21
-4.95105206959724
 31
0.0
  0
LINE
  5
89
330
1F
100
AcDbEntity
  8
1
  6
Continuous
 62
     7
100
AcDbLine
 10
21.18623011188413
 20
-4.95105206959724
 30
0.0
 11
18.58740170092142
 21
-7.03011479836739
 31
0.0
  0
LINE
  5
8A
330
1F
100
AcDbEntity
  8
1
  6
Continuous
 62
     7
100
AcDbLine
 10
4.58740170092142
 20
3.04894793040276
 30
0.0
 11
4.58740170092142
 21
10.54894793040276
 31
0.0
  0
LINE
  5
8B
330
1F
100
AcDbEntity
  8
1
  6
Continuous
 62
     7
100
AcDbLine
 10
4.58740170092142
 20
10.54894793040276
 30
0.0
 11
9.33740170092142
 21
10.54894793040276
 31
0.0
  0
LINE
  5
8C
330
1F
100
AcDbEntity
  8
1
  6
Continuous
 62
     7
100
AcDbLine
 10
9.33740170092142
 20
10.54894793040276
 30
0.0
 11
9.33740170092142
 21
9.04894793040276
 31
0.0
  0
LINE
  5
8D
330
1F
100
AcDbEntity
  8
1
  6
Continuous
 62
     7
100
AcDbLine
 10
9.33740170092142
 20
9.04894793040276
 30
0.0
 11
7.08740170092142
 21
9.04894793040276
 31
0.0
  0
LINE
  5
8E
330
1F
100
AcDbEntity
  8
1
  6
Continuous
 62
     7
100
AcDbLine
 10
7.08740170092142
 20
9.04894793040276
 30
0.0
 11
7.08740170092142
 21
5.54894793040276
 31
0.0
  0
LINE
  5
8F
330
1F
100
AcDbEntity
  8
1
  6
Continuous
 62
     7
100
AcDbLine
 10
7.08740170092142
 20
5.54894793040276
 30
0.0
 11
14.58740170092142
 21
5.54894793040276
 31
0.0
  0
LINE
  5
90
330
1F
100
AcDbEntity
  8
1
  6
Continuous
 62
     7
100
AcDbLine
 10
14.58740170092142
 20
5.54894793040276
 30
0.0
 11
14.58740170092142
 21
9.04894793040276
 31
0.0
  0
LINE
  5
91
330
1F
100
AcDbEntity
  8
1
  6
Continuous
 62
     7
100
AcDbLine
 10
14.58740170092142
 20
9.04894793040276
 30
0.0
 11
12.33740170092142
 21
9.04894793040276
 31
0.0
  0
LINE
  5
92
330
1F
100
AcDbEntity
  8
1
  6
Continuous
 62
     7
100
AcDbLine
 10
12.33740170092142
 20
9.04894793040276
 30
0.0
 11
12.33740170092142
 21
10.54894793040276
 31
0.0
  0
LINE
  5
93
330
1F
100
AcDbEntity
  8
1
  6
Continuous
 62
     7
100
AcDbLine
 10
12.33740170092142
 20
10.54894793040276
 30
0.0
 11
15.58740170092142
 21
10.54894793040276
 31
0.0
  0
LINE
  5
94
330
1F
100
AcDbEntity
  8
1
  6
Continuous
 62
     7
100
AcDbLine
 10
7.08740170092142
 20
3.04894793040276
 30
0.0
 11
7.08740170092142
 21
1.04894793040276
 31
0.0
  0
LINE
  5
95
330
1F
100
AcDbEntity
  8
1
  6
Continuous
 62
     7
100
AcDbLine
 10
15.58740170092142
 20
26.54894793040276
 30
0.0
 11
15.58740170092142
 21
10.54894793040276
 31
0.0
  0
LINE
  5
96
330
1F
100
AcDbEntity
  8
1
  6
Continuous
 62
     7
100
AcDbLine
 10
15.58740170092142
 20
26.54894793040276
 30
0.0
 11
17.58740170092142
 21
26.54894793040276
 31
0.0
  0
LINE
  5
97
330
1F
100
AcDbEntity
  8
1
  6
Continuous
 62
     7
100
AcDbLine
 10
17.58740170092142
 20
32.04894793040276
 30
0.0
 11
17.58740170092142
 21
26.54894793040276
 31
0.0
  0
LINE
  5
98
330
1F
100
AcDbEntity
  8
1
  6
Continuous
 62
     7
100
AcDbLine
 10
18.58740170092142
 20
-0.95105206959724
 30
0.0
 11
18.58740170092142
 21
4.68292252661833
 31
0.0
  0
LINE
  5
99
330
1F
100
AcDbEntity
  8
1
  6
Continuous
 62
     7
100
AcDbLine
 10
17.83740170092142
 20
5.98196063229497
 30
0.0
 11
17.58740170092142
 21
6.12629819959238
 31
0.0
  0
LINE
  5
9A
330
1F
100
AcDbEntity
  8
1
  6
Continuous
 62
     7
100
AcDbLine
 10
17.58740170092142
 20
6.12629819959238
 30
0.0
 11
17.58740170092142
 21
9.04894793040276
 31
0.0
  0
LINE
  5
9B
330
1F
100
AcDbEntity
  8
1
  6
Continuous
 62
     7
100
AcDbLine
 10
17.58740170092142
 20
9.04894793040276
 30
0.0
 11
17.83740170092142
 21
9.19328549770016
 31
0.0
  0
LINE
  5
9C
330
1F
100
AcDbEntity
  8
1
  6
Continuous
 62
     7
100
AcDbLine
 10
18.58740170092142
 20
11.54894793040276
 30
0.0
 11
18.58740170092142
 21
24.04894793040276
 31
0.0
  0
LINE
  5
9D
330
1F
100
AcDbEntity
  8
1
  6
Continuous
 62
     7
100
AcDbLine
 10
18.58740170092142
 20
24.04894793040276
 30
0.0
 11
39.58740170092142
 21
24.04894793040276
 31
0.0
  0
LINE
  5
9E
330
1F
100
AcDbEntity
  8
1
  6
Continuous
 62
     7
100
AcDbLine
 10
18.58740170092142
 20
11.54894793040276
 30
0.0
 11
18.58740170092142
 21
10.49232360337682
 31
0.0
  0
LINE
  5
9F
330
1F
100
AcDbEntity
  8
1
  6
Continuous
 62
     7
100
AcDbLine
 10
17.58740170092142
 20
32.04894793040276
 30
0.0
 11
15.58740170092142
 21
32.04894793040276
 31
0.0
  0
LINE
  5
A0
330
1F
100
AcDbEntity
  8
1
  6
Continuous
 62
     7
100
AcDbLine
 10
12.58740170092142
 20
35.04894793040276
 30
0.0
 11
26.80086067993054
 21
35.04894793040276
 31
0.0
  0
LINE
  5
A1
330
1F
100
AcDbEntity
  8
1
  6
Continuous
 62
     7
100
AcDbLine
 10
20.58740170092142
 20
32.04894793040276
 30
0.0
 11
20.58740170092142
 21
25.54894793040276
 31
0.0
  0
LINE
  5
A2
330
1F
100
AcDbEntity
  8
1
  6
Continuous
 62
     7
100
AcDbLine
 10
20.58740170092142
 20
25.54894793040276
 30
0.0
 11
39.58740170092142
 21
25.54894793040276
 31
0.0
  0
LINE
  5
A3
330
1F
100
AcDbEntity
  8
1
  6
Continuous
 62
     7
100
AcDbLine
 10
27.77271078561924
 20
35.81334790478125
 30
0.0
 11
31.40209261622363
 21
50.78454795602426
 31
0.0
  0
LINE
  5
A4
330
1F
100
AcDbEntity
  8
1
  6
Continuous
 62
     7
100
AcDbLine
 10
32.37394272191233
 20
51.54894793040275
 30
0.0
 11
62.97923185886242
 21
51.54894793040275
 31
0.0
  0
LINE
  5
A5
330
1F
100
AcDbEntity
  8
1
  6
Continuous
 62
     7
100
AcDbLine
 10
63.95108196455112
 20
50.78454795602424
 30
0.0
 11
67.55806679937814
 21
38.26961302885948
 31
0.0
  0
LINE
  5
A6
330
1F
100
AcDbEntity
  8
1
  6
Continuous
 62
     7
100
AcDbLine
 10
39.58740170092142
 20
25.54894793040276
 30
0.0
 11
39.58740170092142
 21
34.04894793040276
 31
0.0
  0
LINE
  5
A7
330
1F
100
AcDbEntity
  8
1
  6
Continuous
 62
     7
100
AcDbLine
 10
39.58740170092142
 20
34.04894793040276
 30
0.0
 11
30.43187324874262
 21
34.04894793040276
 31
0.0
  0
LINE
  5
A8
330
1F
100
AcDbEntity
  8
1
  6
Continuous
 62
     7
100
AcDbLine
 10
30.43187324874262
 20
34.04894793040276
 30
0.0
 11
30.31764293328973
 21
33.57774787915975
 31
0.0
  0
LINE
  5
A9
330
1F
100
AcDbEntity
  8
1
  6
Continuous
 62
     7
100
AcDbLine
 10
28.37394272191233
 20
32.04894793040276
 30
0.0
 11
20.58740170092142
 21
32.04894793040276
 31
0.0
  0
LINE
  5
AA
330
1F
100
AcDbEntity
  8
1
  6
Continuous
 62
     7
100
AcDbLine
 10
39.58740170092142
 20
35.54894793040276
 30
0.0
 11
30.79550961237894
 21
35.54894793040276
 31
0.0
  0
LINE
  5
AB
330
1F
100
AcDbEntity
  8
1
  6
Continuous
 62
     7
100
AcDbLine
 10
30.79550961237894
 20
35.54894793040276
 30
0.0
 11
33.94702476389412
 21
48.54894793040275
 31
0.0
  0
LINE
  5
AC
330
1F
100
AcDbEntity
  8
1
  6
Continuous
 62
     7
100
AcDbLine
 10
33.94702476389412
 20
48.54894793040275
 30
0.0
 11
61.47329819925992
 21
48.54894793040275
 31
0.0
  0
LINE
  5
AD
330
1F
100
AcDbEntity
  8
1
  6
Continuous
 62
     7
100
AcDbLine
 10
6.58740170092142
 20
-26.45105206959723
 30
0.0
 11
27.08740170092142
 21
-26.45105206959723
 31
0.0
  0
LINE
  5
AE
330
1F
100
AcDbEntity
  8
1
  6
Continuous
 62
     7
100
AcDbLine
 10
27.08740170092142
 20
-26.45105206959723
 30
0.0
 11
27.08740170092142
 21
-22.45105206959724
 31
0.0
  0
LINE
  5
AF
330
1F
100
AcDbEntity
  8
1
  6
Continuous
 62
     7
100
AcDbLine
 10
27.08740170092142
 20
-22.45105206959724
 30
0.0
 11
28.58740170092142
 21
-22.45105206959724
 31
0.0
  0
LINE
  5
B0
330
1F
100
AcDbEntity
  8
1
  6
Continuous
 62
     7
100
AcDbLine
 10
28.58740170092142
 20
-22.45105206959724
 30
0.0
 11
28.58740170092142
 21
-26.45105206959723
 31
0.0
  0
LINE
  5
B1
330
1F
100
AcDbEntity
  8
1
  6
Continuous
 62
     7
100
AcDbLine
 10
28.58740170092142
 20
-26.45105206959723
 30
0.0
 11
39.58740170092142
 21
-26.45105206959723
 31
0.0
  0
LINE
  5
B2
330
1F
100
AcDbEntity
  8
1
  6
Continuous
 62
     7
100
AcDbLine
 10
39.58740170092142
 20
-26.45105206959723
 30
0.0
 11
39.58740170092142
 21
-2.45105206959725
 31
0.0
  0
LINE
  5
B3
330
1F
100
AcDbEntity
  8
1
  6
Continuous
 62
     7
100
AcDbLine
 10
42.58740170092142
 20
0.54894793040275
 30
0.0
 11
44.58740170092142
 21
0.54894793040275
 31
0.0
  0
LINE
  5
B4
330
1F
100
AcDbEntity
  8
1
  6
Continuous
 62
     7
100
AcDbLine
 10
44.58740170092142
 20
0.54894793040275
 30
0.0
 11
44.58740170092142
 21
12.54894793040275
 31
0.0
  0
LINE
  5
B5
330
1F
100
AcDbEntity
  8
1
  6
Continuous
 62
     7
100
AcDbLine
 10
44.58740170092142
 20
12.54894793040275
 30
0.0
 11
42.58740170092142
 21
12.54894793040275
 31
0.0
  0
LINE
  5
B6
330
1F
100
AcDbEntity
  8
1
  6
Continuous
 62
     7
100
AcDbLine
 10
39.58740170092142
 20
15.54894793040275
 30
0.0
 11
39.58740170092142
 21
24.04894793040276
 31
0.0
  0
LINE
  5
B7
330
1F
100
AcDbEntity
  8
1
  6
Continuous
 62
     7
100
AcDbLine
 10
47.58740170092142
 20
-29.45105206959723
 30
0.0
 11
47.58740170092142
 21
-25.95105206959723
 31
0.0
  0
LINE
  5
B8
330
1F
100
AcDbEntity
  8
1
  6
Continuous
 62
     7
100
AcDbLine
 10
47.58740170092142
 20
-25.95105206959723
 30
0.0
 11
45.58740170092142
 21
-25.95105206959723
 31
0.0
  0
LINE
  5
B9
330
1F
100
AcDbEntity
  8
1
  6
Continuous
 62
     7
100
AcDbLine
 10
45.58740170092142
 20
-25.95105206959723
 30
0.0
 11
45.58740170092142
 21
-27.45105206959723
 31
0.0
  0
LINE
  5
BA
330
1F
100
AcDbEntity
  8
1
  6
Continuous
 62
     7
100
AcDbLine
 10
45.58740170092142
 20
-27.45105206959723
 30
0.0
 11
42.58740170092142
 21
-27.45105206959723
 31
0.0
  0
LINE
  5
BB
330
1F
100
AcDbEntity
  8
1
  6
Continuous
 62
     7
100
AcDbLine
 10
42.58740170092142
 20
-27.45105206959723
 30
0.0
 11
42.58740170092142
 21
-2.45105206959725
 31
0.0
  0
LINE
  5
BC
330
1F
100
AcDbEntity
  8
1
  6
Continuous
 62
     7
100
AcDbLine
 10
42.58740170092142
 20
-2.45105206959725
 30
0.0
 11
45.58740170092142
 21
-2.45105206959725
 31
0.0
  0
LINE
  5
BD
330
1F
100
AcDbEntity
  8
1
  6
Continuous
 62
     7
100
AcDbLine
 10
45.58740170092142
 20
-2.45105206959725
 30
0.0
 11
45.58740170092142
 21
-6.45105206959725
 31
0.0
  0
LINE
  5
BE
330
1F
100
AcDbEntity
  8
1
  6
Continuous
 62
     7
100
AcDbLine
 10
45.58740170092142
 20
-6.45105206959725
 30
0.0
 11
46.08740170092142
 21
-6.45105206959725
 31
0.0
  0
LINE
  5
BF
330
1F
100
AcDbEntity
  8
1
  6
Continuous
 62
     7
100
AcDbLine
 10
46.08740170092142
 20
-6.45105206959725
 30
0.0
 11
47.58740170092142
 21
-4.95105206959725
 31
0.0
  0
LINE
  5
C0
330
1F
100
AcDbEntity
  8
1
  6
Continuous
 62
     7
100
AcDbLine
 10
47.58740170092142
 20
-4.95105206959725
 30
0.0
 11
47.58740170092142
 21
14.54894793040275
 31
0.0
  0
LINE
  5
C1
330
1F
100
AcDbEntity
  8
1
  6
Continuous
 62
     7
100
AcDbLine
 10
39.58740170092142
 20
39.15713584330437
 30
0.0
 11
39.58740170092142
 21
35.54894793040276
 31
0.0
  0
LINE
  5
C2
330
1F
100
AcDbEntity
  8
1
  6
Continuous
 62
     7
100
AcDbLine
 10
42.58740170092142
 20
39.04894793040276
 30
0.0
 11
42.58740170092142
 21
15.54894793040275
 31
0.0
  0
LINE
  5
C3
330
1F
100
AcDbEntity
  8
1
  6
Continuous
 62
     7
100
AcDbLine
 10
46.08740170092142
 20
42.04894793040276
 30
0.0
 11
56.76577287985333
 21
42.04894793040276
 31
0.0
  0
LINE
  5
C4
330
1F
100
AcDbEntity
  8
1
  6
Continuous
 62
     7
100
AcDbLine
 10
56.76577287985333
 20
42.04894793040276
 30
0.0
 11
57.14904570014372
 21
44.22259610806967
 31
0.0
  0
LINE
  5
C5
330
1F
100
AcDbEntity
  8
1
  6
Continuous
 62
     7
100
AcDbLine
 10
58.13385345315604
 20
45.04894793040275
 30
0.0
 11
62.48204870378652
 21
45.04894793040275
 31
0.0
  0
LINE
  5
C6
330
1F
100
AcDbEntity
  8
1
  6
Continuous
 62
     7
100
AcDbLine
 10
62.48204870378652
 20
45.04894793040275
 30
0.0
 11
61.47329819925992
 21
48.54894793040275
 31
0.0
  0
LINE
  5
C7
330
1F
100
AcDbEntity
  8
1
  6
Continuous
 62
     7
100
AcDbLine
 10
66.11673660246464
 20
37.85420086790924
 30
0.0
 11
65.77239325901553
 21
39.04894793040276
 31
0.0
  0
LINE
  5
C8
330
1F
100
AcDbEntity
  8
1
  6
Continuous
 62
     7
100
AcDbLine
 10
44.58740170092142
 20
39.04894793040276
 30
0.0
 11
59.02442232661923
 21
39.04894793040276
 31
0.0
  0
LINE
  5
C9
330
1F
100
AcDbEntity
  8
1
  6
Continuous
 62
     7
100
AcDbLine
 10
59.02442232661923
 20
39.04894793040276
 30
0.0
 11
59.02442232661923
 21
40.54894793040276
 31
0.0
  0
LINE
  5
CA
330
1F
100
AcDbEntity
  8
1
  6
Continuous
 62
     7
100
AcDbLine
 10
59.02442232661923
 20
40.54894793040276
 30
0.0
 11
58.02442232661923
 21
40.54894793040276
 31
0.0
  0
LINE
  5
CB
330
1F
100
AcDbEntity
  8
1
  6
Continuous
 62
     7
100
AcDbLine
 10
58.02442232661923
 20
40.54894793040276
 30
0.0
 11
58.55340326874463
 21
43.54894793040275
 31
0.0
  0
LINE
  5
CC
330
1F
100
AcDbEntity
  8
1
  6
Continuous
 62
     7
100
AcDbLine
 10
58.55340326874463
 20
43.54894793040275
 30
0.0
 11
62.91437034858362
 21
43.54894793040275
 31
0.0
  0
LINE
  5
CD
330
1F
100
AcDbEntity
  8
1
  6
Continuous
 62
     7
100
AcDbLine
 10
62.91437034858362
 20
43.54894793040275
 30
0.0
 11
63.77901363817782
 21
40.54894793040276
 31
0.0
  0
LINE
  5
CE
330
1F
100
AcDbEntity
  8
1
  6
Continuous
 62
     7
100
AcDbLine
 10
63.77901363817782
 20
40.54894793040276
 30
0.0
 11
62.77901363817782
 21
40.54894793040276
 31
0.0
  0
LINE
  5
CF
330
1F
100
AcDbEntity
  8
1
  6
Continuous
 62
     7
100
AcDbLine
 10
62.77901363817782
 20
40.54894793040276
 30
0.0
 11
62.77901363817782
 21
39.04894793040276
 31
0.0
  0
LINE
  5
D0
330
1F
100
AcDbEntity
  8
1
  6
Continuous
 62
     7
100
AcDbLine
 10
62.77901363817782
 20
39.04894793040276
 30
0.0
 11
65.77239325901553
 21
39.04894793040276
 31
0.0
  0
LINE
  5
D1
330
1F
100
AcDbEntity
  8
1
  6
Continuous
 62
     7
100
AcDbLine
 10
42.58740170092142
 20
15.54894793040275
 30
0.0
 11
45.58740170092142
 21
15.54894793040275
 31
0.0
  0
LINE
  5
D2
330
1F
100
AcDbEntity
  8
1
  6
Continuous
 62
     7
100
AcDbLine
 10
45.58740170092142
 20
15.54894793040275
 30
0.0
 11
45.58740170092142
 21
16.54894793040275
 31
0.0
  0
LINE
  5
D3
330
1F
100
AcDbEntity
  8
1
  6
Continuous
 62
     7
100
AcDbLine
 10
45.58740170092142
 20
16.54894793040275
 30
0.0
 11
47.58740170092142
 21
14.54894793040275
 31
0.0
  0
LINE
  5
D4
330
1F
100
AcDbEntity
  8
1
  6
Continuous
 62
     7
100
AcDbLine
 10
-7.41259829907857
 20
-13.45105206959724
 30
0.0
 11
-7.41259829907857
 21
-9.95105206959724
 31
0.0
  0
LINE
  5
D5
330
1F
100
AcDbEntity
  8
1
  6
Continuous
 62
     7
100
AcDbLine
 10
-7.41259829907857
 20
-9.95105206959724
 30
0.0
 11
-9.41259829907857
 21
-9.95105206959724
 31
0.0
  0
LINE
  5
D6
330
1F
100
AcDbEntity
  8
1
  6
Continuous
 62
     7
100
AcDbLine
 10
-9.41259829907857
 20
-9.95105206959724
 30
0.0
 11
-9.41259829907857
 21
-11.45105206959724
 31
0.0
  0
LINE
  5
D7
330
1F
100
AcDbEntity
  8
1
  6
Continuous
 62
     7
100
AcDbLine
 10
-9.41259829907857
 20
-11.45105206959724
 30
0.0
 11
-12.41259829907857
 21
-11.45105206959724
 31
0.0
  0
LINE
  5
D8
330
1F
100
AcDbEntity
  8
1
  6
Continuous
 62
     7
100
AcDbLine
 10
-12.41259829907857
 20
14.04894793040276
 30
0.0
 11
-12.41259829907857
 21
-11.45105206959724
 31
0.0
  0
LINE
  5
D9
330
1F
100
AcDbEntity
  8
1
  6
Continuous
 62
     7
100
AcDbLine
 10
-48.41259829907857
 20
-10.45105206959723
 30
0.0
 11
-15.41259829907857
 21
-10.45105206959723
 31
0.0
  0
LINE
  5
DA
330
1F
100
AcDbEntity
  8
1
  6
Continuous
 62
     7
100
AcDbLine
 10
-48.41259829907857
 20
-10.45105206959723
 30
0.0
 11
-48.41259829907857
 21
-1.95105206959723
 31
0.0
  0
LINE
  5
DB
330
1F
100
AcDbEntity
  8
1
  6
Continuous
 62
     7
100
AcDbLine
 10
-48.41259829907857
 20
-1.95105206959723
 30
0.0
 11
-18.41259829907857
 21
-1.95105206959724
 31
0.0
  0
LINE
  5
DC
330
1F
100
AcDbEntity
  8
1
  6
Continuous
 62
     7
100
AcDbLine
 10
-15.41259829907857
 20
-1.95105206959724
 30
0.0
 11
-15.41259829907857
 21
-5.45105206959724
 31
0.0
  0
LINE
  5
DD
330
1F
100
AcDbEntity
  8
1
  6
Continuous
 62
     7
100
AcDbLine
 10
-18.41259829907857
 20
-1.95105206959724
 30
0.0
 11
-18.41259829907857
 21
-3.45105206959724
 31
0.0
  0
LINE
  5
DE
330
1F
100
AcDbEntity
  8
1
  6
Continuous
 62
     7
100
AcDbLine
 10
-18.41259829907857
 20
-3.45105206959724
 30
0.0
 11
-16.91259829907857
 21
-3.45105206959724
 31
0.0
  0
LINE
  5
DF
330
1F
100
AcDbEntity
  8
1
  6
Continuous
 62
     7
100
AcDbLine
 10
-16.91259829907857
 20
-3.45105206959724
 30
0.0
 11
-16.91259829907857
 21
-1.95105206959724
 31
0.0
  0
LINE
  5
E0
330
1F
100
AcDbEntity
  8
1
  6
Continuous
 62
     7
100
AcDbLine
 10
-16.91259829907857
 20
-1.95105206959724
 30
0.0
 11
-15.41259829907857
 21
-1.95105206959724
 31
0.0
  0
LINE
  5
E1
330
1F
100
AcDbEntity
  8
1
  6
Continuous
 62
     7
100
AcDbLine
 10
-15.41259829907857
 20
-5.45105206959724
 30
0.0
 11
-18.41259829907857
 21
-5.45105206959724
 31
0.0
  0
LINE
  5
E2
330
1F
100
AcDbEntity
  8
1
  6
Continuous
 62
     7
100
AcDbLine
 10
-18.41259829907857
 20
-5.45105206959724
 30
0.0
 11
-18.41259829907857
 21
-6.45105206959724
 31
0.0
  0
LINE
  5
E3
330
1F
100
AcDbEntity
  8
1
  6
Continuous
 62
     7
100
AcDbLine
 10
-18.41259829907857
 20
-6.45105206959724
 30
0.0
 11
-15.41259829907857
 21
-7.95105206959724
 31
0.0
  0
LINE
  5
E4
330
1F
100
AcDbEntity
  8
1
  6
Continuous
 62
     7
100
AcDbLine
 10
-15.41259829907857
 20
-7.95105206959724
 30
0.0
 11
-15.41259829907857
 21
-10.45105206959723
 31
0.0
  0
LINE
  5
E5
330
1F
100
AcDbEntity
  8
1
  6
Continuous
 62
     7
100
AcDbLine
 10
-12.41259829907857
 20
14.04894793040276
 30
0.0
 11
7.58740170092142
 21
14.04894793040276
 31
0.0
  0
LINE
  5
E6
330
1F
100
AcDbEntity
  8
1
  6
Continuous
 62
     7
100
AcDbLine
 10
-15.41259829907857
 20
-0.45105206959724
 30
0.0
 11
-15.41259829907857
 21
14.04894793040276
 31
0.0
  0
LINE
  5
E7
330
1F
100
AcDbEntity
  8
1
  6
Continuous
 62
     7
100
AcDbLine
 10
-12.41259829907857
 20
17.04894793040276
 30
0.0
 11
-6.91259829907857
 21
17.04894793040276
 31
0.0
  0
LINE
  5
E8
330
1F
100
AcDbEntity
  8
1
  6
Continuous
 62
     7
100
AcDbLine
 10
-3.91259829907857
 20
17.04894793040276
 30
0.0
 11
7.58740170092142
 21
16.04894793040275
 31
0.0
  0
LINE
  5
E9
330
1F
100
AcDbEntity
  8
1
  6
Continuous
 62
     7
100
AcDbLine
 10
7.58740170092142
 20
16.04894793040275
 30
0.0
 11
7.58740170092142
 21
14.04894793040276
 31
0.0
  0
LINE
  5
EA
330
1F
100
AcDbEntity
  8
1
  6
Continuous
 62
     7
100
AcDbLine
 10
-48.41259829907857
 20
-0.45105206959722
 30
0.0
 11
-15.41259829907857
 21
-0.45105206959724
 31
0.0
  0
LINE
  5
EB
330
1F
100
AcDbEntity
  8
1
  6
Continuous
 62
     7
100
AcDbLine
 10
-51.41259829907857
 20
-13.45105206959723
 30
0.0
 11
-51.41259829907857
 21
-10.45105206959723
 31
0.0
  0
LINE
  5
EC
330
1F
100
AcDbEntity
  8
1
  6
Continuous
 62
     7
100
AcDbLine
 10
-51.41259829907857
 20
-3.45105206959723
 30
0.0
 11
-54.41259829907857
 21
-3.45105206959723
 31
0.0
  0
LINE
  5
ED
330
1F
100
AcDbEntity
  8
1
  6
Continuous
 62
     7
100
AcDbLine
 10
-54.41259829907857
 20
-3.45105206959723
 30
0.0
 11
-54.41259829907857
 21
-7.45105206959722
 31
0.0
  0
LINE
  5
EE
330
1F
100
AcDbEntity
  8
1
  6
Continuous
 62
     7
100
AcDbLine
 10
-56.41259829907857
 20
-10.95105206959723
 30
0.0
 11
-56.41259829907857
 21
-0.45105206959722
 31
0.0
  0
LINE
  5
EF
330
1F
100
AcDbEntity
  8
1
  6
Continuous
 62
     7
100
AcDbLine
 10
-54.41259829907857
 20
1.04894793040277
 30
0.0
 11
-54.41259829907857
 21
-1.45105206959723
 31
0.0
  0
LINE
  5
F0
330
1F
100
AcDbEntity
  8
1
  6
Continuous
 62
     7
100
AcDbLine
 10
-54.41259829907857
 20
-1.45105206959723
 30
0.0
 11
-51.41259829907857
 21
-1.45105206959723
 31
0.0
  0
LINE
  5
F1
330
1F
100
AcDbEntity
  8
1
  6
Continuous
 62
     7
100
AcDbLine
 10
-54.91259829907857
 20
1.04894793040277
 30
0.0
 11
-56.41259829907857
 21
-0.45105206959722
 31
0.0
  0
LINE
  5
F2
330
1F
100
AcDbEntity
  8
1
  6
Continuous
 62
     7
100
AcDbLine
 10
-54.91259829907857
 20
1.04894793040277
 30
0.0
 11
-54.41259829907857
 21
1.04894793040277
 31
0.0
  0
LINE
  5
F3
330
1F
100
AcDbEntity
  8
1
  6
Continuous
 62
     7
100
AcDbLine
 10
-54.91259829907857
 20
-10.95105206959723
 30
0.0
 11
-56.41259829907857
 21
-10.95105206959723
 31
0.0
  0
LINE
  5
F4
330
1F
100
AcDbEntity
  8
1
  6
Continuous
 62
     7
100
AcDbLine
 10
-53.91259829907857
 20
-9.95105206959722
 30
0.0
 11
-54.91259829907857
 21
-10.95105206959723
 31
0.0
  0
LINE
  5
F5
330
1F
100
AcDbEntity
  8
1
  6
Continuous
 62
     7
100
AcDbLine
 10
-53.91259829907857
 20
-9.95105206959722
 30
0.0
 11
-53.91259829907857
 21
-8.95105206959722
 31
0.0
  0
LINE
  5
F6
330
1F
100
AcDbEntity
  8
1
  6
Continuous
 62
     7
100
AcDbLine
 10
-53.91259829907857
 20
-8.95105206959722
 30
0.0
 11
-54.91259829907857
 21
-8.95105206959722
 31
0.0
  0
LINE
  5
F7
330
1F
100
AcDbEntity
  8
1
  6
Continuous
 62
     7
100
AcDbLine
 10
-54.91259829907857
 20
-8.95105206959722
 30
0.0
 11
-54.91259829907857
 21
-7.95105206959722
 31
0.0
  0
LINE
  5
F8
330
1F
100
AcDbEntity
  8
1
  6
Continuous
 62
     7
100
AcDbLine
 10
-54.91259829907857
 20
-7.95105206959722
 30
0.0
 11
-54.41259829907857
 21
-7.45105206959722
 31
0.0
  0
LINE
  5
F9
330
1F
100
AcDbEntity
  8
1
  6
Continuous
 62
     7
100
AcDbLine
 10
-51.41259829907857
 20
-10.45105206959723
 30
0.0
 11
-50.91259829907857
 21
-9.95105206959722
 31
0.0
  0
LINE
  5
FA
330
1F
100
AcDbEntity
  8
1
  6
Continuous
 62
     7
100
AcDbLine
 10
-50.91259829907857
 20
-9.95105206959722
 30
0.0
 11
-51.41259829907857
 21
-9.45105206959722
 31
0.0
  0
LINE
  5
FB
330
1F
100
AcDbEntity
  8
1
  6
Continuous
 62
     7
100
AcDbLine
 10
-51.41259829907857
 20
-9.45105206959722
 30
0.0
 11
-50.91259829907857
 21
-8.95105206959722
 31
0.0
  0
LINE
  5
FC
330
1F
100
AcDbEntity
  8
1
  6
Continuous
 62
     7
100
AcDbLine
 10
-50.91259829907857
 20
-8.95105206959722
 30
0.0
 11
-51.41259829907857
 21
-8.45105206959722
 31
0.0
  0
LINE
  5
FD
330
1F
100
AcDbEntity
  8
1
  6
Continuous
 62
     7
100
AcDbLine
 10
-51.41259829907857
 20
-8.45105206959722
 30
0.0
 11
-50.91259829907857
 21
-7.95105206959722
 31
0.0
  0
LINE
  5
FE
330
1F
100
AcDbEntity
  8
1
  6
Continuous
 62
     7
100
AcDbLine
 10
-50.91259829907857
 20
-7.95105206959722
 30
0.0
 11
-51.41259829907857
 21
-7.45105206959722
 31
0.0
  0
LINE
  5
FF
330
1F
100
AcDbEntity
  8
1
  6
Continuous
 62
     7
100
AcDbLine
 10
-51.41259829907857
 20
-7.45105206959722
 30
0.0
 11
-50.91259829907857
 21
-6.95105206959722
 31
0.0
  0
LINE
  5
100
330
1F
100
AcDbEntity
  8
1
  6
Continuous
 62
     7
100
AcDbLine
 10
-50.91259829907857
 20
-6.95105206959722
 30
0.0
 11
-51.41259829907857
 21
-6.45105206959722
 31
0.0
  0
LINE
  5
101
330
1F
100
AcDbEntity
  8
1
  6
Continuous
 62
     7
100
AcDbLine
 10
-51.41259829907857
 20
-6.45105206959722
 30
0.0
 11
-50.91259829907857
 21
-5.95105206959722
 31
0.0
  0
LINE
  5
102
330
1F
100
AcDbEntity
  8
1
  6
Continuous
 62
     7
100
AcDbLine
 10
-50.91259829907857
 20
-5.95105206959722
 30
0.0
 11
-51.41259829907857
 21
-5.45105206959722
 31
0.0
  0
LINE
  5
103
330
1F
100
AcDbEntity
  8
1
  6
Continuous
 62
     7
100
AcDbLine
 10
-51.41259829907857
 20
-5.45105206959722
 30
0.0
 11
-51.41259829907857
 21
-3.45105206959723
 31
0.0
  0
LINE
  5
104
330
1F
100
AcDbEntity
  8
1
  6
Continuous
 62
     7
100
AcDbLine
 10
-51.41259829907857
 20
48.54894793040275
 30
0.0
 11
-51.41259829907855
 21
51.54894793040278
 31
0.0
  0
LINE
  5
105
330
1F
100
AcDbEntity
  8
1
  6
Continuous
 62
     7
100
AcDbLine
 10
-54.41259829907857
 20
41.54894793040275
 30
0.0
 11
-51.41259829907857
 21
41.54894793040275
 31
0.0
  0
LINE
  5
106
330
1F
100
AcDbEntity
  8
1
  6
Continuous
 62
     7
100
AcDbLine
 10
-54.41259829907857
 20
45.54894793040275
 30
0.0
 11
-54.41259829907857
 21
41.54894793040275
 31
0.0
  0
LINE
  5
107
330
1F
100
AcDbEntity
  8
1
  6
Continuous
 62
     7
100
AcDbLine
 10
-56.41259829907857
 20
38.54894793040275
 30
0.0
 11
-56.41259829907857
 21
49.04894793040275
 31
0.0
  0
LINE
  5
108
330
1F
100
AcDbEntity
  8
1
  6
Continuous
 62
     7
100
AcDbLine
 10
-54.41259829907857
 20
39.54894793040275
 30
0.0
 11
-54.41259829907857
 21
37.04894793040275
 31
0.0
  0
LINE
  5
109
330
1F
100
AcDbEntity
  8
1
  6
Continuous
 62
     7
100
AcDbLine
 10
-51.41259829907857
 20
39.54894793040275
 30
0.0
 11
-54.41259829907857
 21
39.54894793040275
 31
0.0
  0
LINE
  5
10A
330
1F
100
AcDbEntity
  8
1
  6
Continuous
 62
     7
100
AcDbLine
 10
-56.41259829907857
 20
38.54894793040275
 30
0.0
 11
-54.91259829907857
 21
37.04894793040275
 31
0.0
  0
LINE
  5
10B
330
1F
100
AcDbEntity
  8
1
  6
Continuous
 62
     7
100
AcDbLine
 10
-54.41259829907857
 20
37.04894793040275
 30
0.0
 11
-54.91259829907857
 21
37.04894793040275
 31
0.0
  0
LINE
  5
10C
330
1F
100
AcDbEntity
  8
1
  6
Continuous
 62
     7
100
AcDbLine
 10
-56.41259829907857
 20
49.04894793040275
 30
0.0
 11
-54.91259829907857
 21
49.04894793040275
 31
0.0
  0
LINE
  5
10D
330
1F
100
AcDbEntity
  8
1
  6
Continuous
 62
     7
100
AcDbLine
 10
-54.91259829907857
 20
49.04894793040275
 30
0.0
 11
-53.91259829907857
 21
48.04894793040275
 31
0.0
  0
LINE
  5
10E
330
1F
100
AcDbEntity
  8
1
  6
Continuous
 62
     7
100
AcDbLine
 10
-53.91259829907857
 20
47.04894793040275
 30
0.0
 11
-53.91259829907857
 21
48.04894793040275
 31
0.0
  0
LINE
  5
10F
330
1F
100
AcDbEntity
  8
1
  6
Continuous
 62
     7
100
AcDbLine
 10
-54.91259829907857
 20
47.04894793040275
 30
0.0
 11
-53.91259829907857
 21
47.04894793040275
 31
0.0
  0
LINE
  5
110
330
1F
100
AcDbEntity
  8
1
  6
Continuous
 62
     7
100
AcDbLine
 10
-54.91259829907857
 20
46.04894793040275
 30
0.0
 11
-54.91259829907857
 21
47.04894793040275
 31
0.0
  0
LINE
  5
111
330
1F
100
AcDbEntity
  8
1
  6
Continuous
 62
     7
100
AcDbLine
 10
-54.41259829907857
 20
45.54894793040275
 30
0.0
 11
-54.91259829907857
 21
46.04894793040275
 31
0.0
  0
LINE
  5
112
330
1F
100
AcDbEntity
  8
1
  6
Continuous
 62
     7
100
AcDbLine
 10
-50.91259829907857
 20
48.04894793040275
 30
0.0
 11
-51.41259829907857
 21
48.54894793040275
 31
0.0
  0
LINE
  5
113
330
1F
100
AcDbEntity
  8
1
  6
Continuous
 62
     7
100
AcDbLine
 10
-51.41259829907857
 20
47.54894793040275
 30
0.0
 11
-50.91259829907857
 21
48.04894793040275
 31
0.0
  0
LINE
  5
114
330
1F
100
AcDbEntity
  8
1
  6
Continuous
 62
     7
100
AcDbLine
 10
-50.91259829907857
 20
47.04894793040275
 30
0.0
 11
-51.41259829907857
 21
47.54894793040275
 31
0.0
  0
LINE
  5
115
330
1F
100
AcDbEntity
  8
1
  6
Continuous
 62
     7
100
AcDbLine
 10
-51.41259829907857
 20
46.54894793040275
 30
0.0
 11
-50.91259829907857
 21
47.04894793040275
 31
0.0
  0
LINE
  5
116
330
1F
100
AcDbEntity
  8
1
  6
Continuous
 62
     7
100
AcDbLine
 10
-50.91259829907857
 20
46.04894793040275
 30
0.0
 11
-51.41259829907857
 21
46.54894793040275
 31
0.0
  0
LINE
  5
117
330
1F
100
AcDbEntity
  8
1
  6
Continuous
 62
     7
100
AcDbLine
 10
-51.41259829907857
 20
45.54894793040275
 30
0.0
 11
-50.91259829907857
 21
46.04894793040275
 31
0.0
  0
LINE
  5
118
330
1F
100
AcDbEntity
  8
1
  6
Continuous
 62
     7
100
AcDbLine
 10
-50.91259829907857
 20
45.04894793040275
 30
0.0
 11
-51.41259829907857
 21
45.54894793040275
 31
0.0
  0
LINE
  5
119
330
1F
100
AcDbEntity
  8
1
  6
Continuous
 62
     7
100
AcDbLine
 10
-51.41259829907857
 20
44.54894793040275
 30
0.0
 11
-50.91259829907857
 21
45.04894793040275
 31
0.0
  0
LINE
  5
11A
330
1F
100
AcDbEntity
  8
1
  6
Continuous
 62
     7
100
AcDbLine
 10
-50.91259829907857
 20
44.04894793040275
 30
0.0
 11
-51.41259829907857
 21
44.54894793040275
 31
0.0
  0
LINE
  5
11B
330
1F
100
AcDbEntity
  8
1
  6
Continuous
 62
     7
100
AcDbLine
 10
-51.41259829907857
 20
43.54894793040275
 30
0.0
 11
-50.91259829907857
 21
44.04894793040275
 31
0.0
  0
LINE
  5
11C
330
1F
100
AcDbEntity
  8
1
  6
Continuous
 62
     7
100
AcDbLine
 10
-51.41259829907857
 20
41.54894793040275
 30
0.0
 11
-51.41259829907857
 21
43.54894793040275
 31
0.0
  0
LINE
  5
11D
330
1F
100
AcDbEntity
  8
1
  6
Continuous
 62
     7
100
AcDbLine
 10
-51.41259829907857
 20
-1.45105206959723
 30
0.0
 11
-51.41259829907855
 21
18.04894793040278
 31
0.0
  0
LINE
  5
11E
330
1F
100
AcDbEntity
  8
1
  6
Continuous
 62
     7
100
AcDbLine
 10
-51.41259829907855
 20
18.04894793040278
 30
0.0
 11
-54.41259829907857
 21
18.04894793040278
 31
0.0
  0
LINE
  5
11F
330
1F
100
AcDbEntity
  8
1
  6
Continuous
 62
     7
100
AcDbLine
 10
-54.41259829907857
 20
18.04894793040278
 30
0.0
 11
-54.41259829907857
 21
15.54894793040278
 31
0.0
  0
LINE
  5
120
330
1F
100
AcDbEntity
  8
1
  6
Continuous
 62
     7
100
AcDbLine
 10
-54.41259829907857
 20
15.54894793040278
 30
0.0
 11
-54.91259829907857
 21
15.54894793040278
 31
0.0
  0
LINE
  5
121
330
1F
100
AcDbEntity
  8
1
  6
Continuous
 62
     7
100
AcDbLine
 10
-54.91259829907857
 20
15.54894793040278
 30
0.0
 11
-56.41259829907857
 21
17.04894793040278
 31
0.0
  0
LINE
  5
122
330
1F
100
AcDbEntity
  8
1
  6
Continuous
 62
     7
100
AcDbLine
 10
-56.41259829907857
 20
17.04894793040278
 30
0.0
 11
-56.41259829907857
 21
21.04894793040278
 31
0.0
  0
LINE
  5
123
330
1F
100
AcDbEntity
  8
1
  6
Continuous
 62
     7
100
AcDbLine
 10
-56.41259829907857
 20
21.04894793040278
 30
0.0
 11
-54.91259829907857
 21
22.54894793040278
 31
0.0
  0
LINE
  5
124
330
1F
100
AcDbEntity
  8
1
  6
Continuous
 62
     7
100
AcDbLine
 10
-54.91259829907857
 20
22.54894793040278
 30
0.0
 11
-54.41259829907857
 21
22.54894793040278
 31
0.0
  0
LINE
  5
125
330
1F
100
AcDbEntity
  8
1
  6
Continuous
 62
     7
100
AcDbLine
 10
-54.41259829907857
 20
22.54894793040278
 30
0.0
 11
-54.41259829907857
 21
20.04894793040278
 31
0.0
  0
LINE
  5
126
330
1F
100
AcDbEntity
  8
1
  6
Continuous
 62
     7
100
AcDbLine
 10
-54.41259829907857
 20
20.04894793040278
 30
0.0
 11
-51.41259829907855
 21
20.04894793040278
 31
0.0
  0
LINE
  5
127
330
1F
100
AcDbEntity
  8
1
  6
Continuous
 62
     7
100
AcDbLine
 10
-51.41259829907855
 20
20.04894793040278
 30
0.0
 11
-51.41259829907857
 21
39.54894793040275
 31
0.0
  0
LINE
  5
128
330
1F
100
AcDbEntity
  8
1
  6
Continuous
 62
     7
100
AcDbLine
 10
16.95108196455112
 20
50.78454795602424
 30
0.0
 11
20.55806679937814
 21
38.26961302885948
 31
0.0
  0
LINE
  5
129
330
1F
100
AcDbEntity
  8
1
  6
Continuous
 62
     7
100
AcDbLine
 10
9.76577287985333
 20
42.04894793040276
 30
0.0
 11
10.14904570014372
 21
44.22259610806967
 31
0.0
  0
LINE
  5
12A
330
1F
100
AcDbEntity
  8
1
  6
Continuous
 62
     7
100
AcDbLine
 10
11.13385345315592
 20
45.04894793040275
 30
0.0
 11
15.48204870378652
 21
45.04894793040275
 31
0.0
  0
LINE
  5
12B
330
1F
100
AcDbEntity
  8
1
  6
Continuous
 62
     7
100
AcDbLine
 10
15.48204870378652
 20
45.04894793040275
 30
0.0
 11
14.47329819925992
 21
48.54894793040275
 31
0.0
  0
LINE
  5
12C
330
1F
100
AcDbEntity
  8
1
  6
Continuous
 62
     7
100
AcDbLine
 10
19.11673660246464
 20
37.85420086790924
 30
0.0
 11
18.77239325901553
 21
39.04894793040276
 31
0.0
  0
LINE
  5
12D
330
1F
100
AcDbEntity
  8
1
  6
Continuous
 62
     7
100
AcDbLine
 10
12.02442232661923
 20
39.04894793040276
 30
0.0
 11
12.02442232661923
 21
40.54894793040276
 31
0.0
  0
LINE
  5
12E
330
1F
100
AcDbEntity
  8
1
  6
Continuous
 62
     7
100
AcDbLine
 10
12.02442232661923
 20
40.54894793040276
 30
0.0
 11
11.02442232661923
 21
40.54894793040276
 31
0.0
  0
LINE
  5
12F
330
1F
100
AcDbEntity
  8
1
  6
Continuous
 62
     7
100
AcDbLine
 10
11.02442232661923
 20
40.54894793040276
 30
0.0
 11
11.55340326874463
 21
43.54894793040275
 31
0.0
  0
LINE
  5
130
330
1F
100
AcDbEntity
  8
1
  6
Continuous
 62
     7
100
AcDbLine
 10
11.55340326874463
 20
43.54894793040275
 30
0.0
 11
15.91437034858362
 21
43.54894793040275
 31
0.0
  0
LINE
  5
131
330
1F
100
AcDbEntity
  8
1
  6
Continuous
 62
     7
100
AcDbLine
 10
15.91437034858362
 20
43.54894793040275
 30
0.0
 11
16.77901363817782
 21
40.54894793040276
 31
0.0
  0
LINE
  5
132
330
1F
100
AcDbEntity
  8
1
  6
Continuous
 62
     7
100
AcDbLine
 10
16.77901363817782
 20
40.54894793040276
 30
0.0
 11
15.77901363817782
 21
40.54894793040276
 31
0.0
  0
LINE
  5
133
330
1F
100
AcDbEntity
  8
1
  6
Continuous
 62
     7
100
AcDbLine
 10
15.77901363817782
 20
40.54894793040276
 30
0.0
 11
15.77901363817782
 21
39.04894793040276
 31
0.0
  0
LINE
  5
134
330
1F
100
AcDbEntity
  8
1
  6
Continuous
 62
     7
100
AcDbLine
 10
15.77901363817782
 20
39.04894793040276
 30
0.0
 11
18.77239325901553
 21
39.04894793040276
 31
0.0
  0
LINE
  5
135
330
1F
100
AcDbEntity
  8
1
  6
Continuous
 62
     7
100
AcDbLine
 10
-51.41259829907855
 20
51.54894793040278
 30
0.0
 11
15.97923185886242
 21
51.54894793040275
 31
0.0
  0
LINE
  5
136
330
1F
100
AcDbEntity
  8
1
  6
Continuous
 62
     7
100
AcDbLine
 10
-48.41259829907857
 20
42.04894793040278
 30
0.0
 11
-31.91259829907857
 21
42.04894793040278
 31
0.0
  0
LINE
  5
137
330
1F
100
AcDbEntity
  8
1
  6
Continuous
 62
     7
100
AcDbLine
 10
-31.91259829907857
 20
42.04894793040278
 30
0.0
 11
-31.91259829907857
 21
48.54894793040275
 31
0.0
  0
LINE
  5
138
330
1F
100
AcDbEntity
  8
1
  6
Continuous
 62
     7
100
AcDbLine
 10
-31.91259829907857
 20
48.54894793040275
 30
0.0
 11
-48.41259829907857
 21
48.54894793040275
 31
0.0
  0
LINE
  5
139
330
1F
100
AcDbEntity
  8
1
  6
Continuous
 62
     7
100
AcDbLine
 10
-48.41259829907857
 20
48.54894793040275
 30
0.0
 11
-48.41259829907857
 21
42.04894793040278
 31
0.0
  0
LINE
  5
13A
330
1F
100
AcDbEntity
  8
1
  6
Continuous
 62
     7
100
AcDbLine
 10
-30.41259829907857
 20
42.04894793040276
 30
0.0
 11
-0.41259829907857
 21
42.04894793040276
 31
0.0
  0
LINE
  5
13B
330
1F
100
AcDbEntity
  8
1
  6
Continuous
 62
     7
100
AcDbLine
 10
-0.41259829907857
 20
42.04894793040276
 30
0.0
 11
-0.41259829907857
 21
48.54894793040275
 31
0.0
  0
LINE
  5
13C
330
1F
100
AcDbEntity
  8
1
  6
Continuous
 62
     7
100
AcDbLine
 10
-0.41259829907857
 20
48.54894793040275
 30
0.0
 11
-30.41259829907857
 21
48.54894793040275
 31
0.0
  0
LINE
  5
13D
330
1F
100
AcDbEntity
  8
1
  6
Continuous
 62
     7
100
AcDbLine
 10
-30.41259829907857
 20
48.54894793040275
 30
0.0
 11
-30.41259829907857
 21
42.04894793040276
 31
0.0
  0
LINE
  5
13E
330
1F
100
AcDbEntity
  8
1
  6
Continuous
 62
     7
100
AcDbLine
 10
-48.41259829907857
 20
40.54894793040278
 30
0.0
 11
-48.41259829907857
 21
-0.45105206959722
 31
0.0
  0
LINE
  5
13F
330
1F
100
AcDbEntity
  8
1
  6
Continuous
 62
     7
100
AcDbLine
 10
-48.41259829907857
 20
40.54894793040278
 30
0.0
 11
-14.41259829907857
 21
40.54894793040278
 31
0.0
  0
LINE
  5
140
330
1F
100
AcDbEntity
  8
1
  6
Continuous
 62
     7
100
AcDbLine
 10
-6.91259829907857
 20
40.54894793040275
 30
0.0
 11
-6.91259829907857
 21
17.04894793040276
 31
0.0
  0
LINE
  5
141
330
1F
100
AcDbEntity
  8
1
  6
Continuous
 62
     7
100
AcDbLine
 10
-3.91259829907857
 20
17.04894793040276
 30
0.0
 11
-3.91259829907857
 21
39.04894793040275
 31
0.0
  0
LINE
  5
142
330
1F
100
AcDbEntity
  8
1
  6
Continuous
 62
     7
100
AcDbLine
 10
-3.91259829907857
 20
39.04894793040275
 30
0.0
 11
12.02442232661923
 21
39.04894793040276
 31
0.0
  0
LINE
  5
143
330
1F
100
AcDbEntity
  8
1
  6
Continuous
 62
     7
100
AcDbLine
 10
14.47329819925992
 20
48.54894793040275
 30
0.0
 11
1.08740170092143
 21
48.54894793040275
 31
0.0
  0
LINE
  5
144
330
1F
100
AcDbEntity
  8
1
  6
Continuous
 62
     7
100
AcDbLine
 10
1.08740170092143
 20
48.54894793040275
 30
0.0
 11
1.08740170092143
 21
42.04894793040275
 31
0.0
  0
LINE
  5
145
330
1F
100
AcDbEntity
  8
1
  6
Continuous
 62
     7
100
AcDbLine
 10
1.08740170092143
 20
42.04894793040275
 30
0.0
 11
9.76577287985333
 21
42.04894793040276
 31
0.0
  0
LINE
  5
146
330
1F
100
AcDbEntity
  8
1
  6
Continuous
 62
     7
100
AcDbLine
 10
-14.41259829907857
 20
40.54894793040278
 30
0.0
 11
-14.41259829907857
 21
36.54894793040275
 31
0.0
  0
LINE
  5
147
330
1F
100
AcDbEntity
  8
1
  6
Continuous
 62
     7
100
AcDbLine
 10
-14.41259829907857
 20
36.54894793040275
 30
0.0
 11
-12.91259829907857
 21
36.54894793040275
 31
0.0
  0
LINE
  5
148
330
1F
100
AcDbEntity
  8
1
  6
Continuous
 62
     7
100
AcDbLine
 10
-12.91259829907857
 20
36.54894793040275
 30
0.0
 11
-12.91259829907857
 21
40.54894793040278
 31
0.0
  0
LINE
  5
149
330
1F
100
AcDbEntity
  8
1
  6
Continuous
 62
     7
100
AcDbLine
 10
-12.91259829907857
 20
40.54894793040278
 30
0.0
 11
-6.91259829907857
 21
40.54894793040275
 31
0.0
  0
LINE
  5
14A
102
{ACAD_REACTORS
330
194
330
194
102
}
330
1F
100
AcDbEntity
  8
1
  6
Continuous
 62
     7
100
AcDbLine
 10
-44.91259829907857
 20
0.04894793040278
 30
0.0
 11
-18.91259829907857
 21
0.04894793040278
 31
0.0
  0
LINE
  5
14B
102
{ACAD_REACTORS
330
194
330
194
102
}
330
1F
100
AcDbEntity
  8
1
  6
Continuous
 62
     7
100
AcDbLine
 10
-16.41259829907857
 20
2.54894793040277
 30
0.0
 11
-16.41259829907857
 21
37.54894793040278
 31
0.0
  0
LINE
  5
14C
102
{ACAD_REACTORS
330
194
330
194
102
}
330
1F
100
AcDbEntity
  8
1
  6
Continuous
 62
     7
100
AcDbLine
 10
-18.91259829907857
 20
40.04894793040278
 30
0.0
 11
-44.91259829907857
 21
40.04894793040278
 31
0.0
  0
LINE
  5
14D
102
{ACAD_REACTORS
330
194
330
194
102
}
330
1F
100
AcDbEntity
  8
1
  6
Continuous
 62
     7
100
AcDbLine
 10
-47.41259829907857
 20
37.54894793040278
 30
0.0
 11
-47.41259829907857
 21
2.54894793040277
 31
0.0
  0
LINE
  5
14E
102
{ACAD_REACTORS
330
194
330
194
102
}
330
1F
100
AcDbEntity
  8
1
  6
Continuous
 62
     7
100
AcDbLine
 10
-44.91259829907857
 20
2.04894793040277
 30
0.0
 11
-18.91259829907857
 21
2.04894793040277
 31
0.0
  0
LINE
  5
14F
102
{ACAD_REACTORS
330
194
330
194
102
}
330
1F
100
AcDbEntity
  8
1
  6
Continuous
 62
     7
100
AcDbLine
 10
-18.41259829907857
 20
2.54894793040277
 30
0.0
 11
-18.41259829907857
 21
37.54894793040278
 31
0.0
  0
LINE
  5
150
102
{ACAD_REACTORS
330
194
330
194
102
}
330
1F
100
AcDbEntity
  8
1
  6
Continuous
 62
     7
100
AcDbLine
 10
-18.91259829907857
 20
38.04894793040278
 30
0.0
 11
-44.91259829907857
 21
38.04894793040278
 31
0.0
  0
LINE
  5
151
102
{ACAD_REACTORS
330
194
330
194
102
}
330
1F
100
AcDbEntity
  8
1
  6
Continuous
 62
     7
100
AcDbLine
 10
-45.41259829907857
 20
37.54894793040278
 30
0.0
 11
-45.41259829907857
 21
2.54894793040277
 31
0.0
  0
LINE
  5
152
102
{ACAD_REACTORS
330
195
330
195
102
}
330
1F
100
AcDbEntity
  8
1
  6
Continuous
 62
     7
100
AcDbLine
 10
20.88912085527142
 20
21.63577201923622
 30
0.0
 11
20.06461333043973
 21
11.28847566390236
 31
0.0
  0
LINE
  5
153
102
{ACAD_REACTORS
330
195
330
195
102
}
330
1F
100
AcDbEntity
  8
1
  6
Continuous
 62
     7
100
AcDbLine
 10
20.06461333043973
 20
11.28847566390236
 30
0.0
 11
18.58740170092142
 21
11.54894793040276
 31
0.0
  0
LINE
  5
154
102
{ACAD_REACTORS
330
195
330
195
102
}
330
1F
100
AcDbEntity
  8
1
  6
Continuous
 62
     7
100
AcDbLine
 10
18.58740170092142
 20
11.54894793040276
 30
0.0
 11
19.41190922575314
 21
21.89624428573662
 31
0.0
  0
LINE
  5
155
102
{ACAD_REACTORS
330
195
330
195
102
}
330
1F
100
AcDbEntity
  8
1
  6
Continuous
 62
     7
100
AcDbLine
 10
21.38152473177763
 20
23.54894793040276
 30
0.0
 11
37.08740170092142
 21
23.54894793040276
 31
0.0
  0
LINE
  5
156
102
{ACAD_REACTORS
330
195
330
195
102
}
330
1F
100
AcDbEntity
  8
1
  6
Continuous
 62
     7
100
AcDbLine
 10
39.08740170092142
 20
21.54894793040276
 30
0.0
 11
39.08740170092142
 21
-23.95105206959723
 31
0.0
  0
LINE
  5
157
102
{ACAD_REACTORS
330
195
330
195
102
}
330
1F
100
AcDbEntity
  8
1
  6
Continuous
 62
     7
100
AcDbLine
 10
37.08740170092142
 20
-25.95105206959723
 30
0.0
 11
31.08740170092142
 21
-25.95105206959723
 31
0.0
  0
LINE
  5
158
102
{ACAD_REACTORS
330
195
330
195
102
}
330
1F
100
AcDbEntity
  8
1
  6
Continuous
 62
     7
100
AcDbLine
 10
29.08740170092142
 20
-23.95105206959723
 30
0.0
 11
29.08740170092142
 21
-15.95105206959724
 31
0.0
  0
LINE
  5
159
102
{ACAD_REACTORS
330
195
330
195
102
}
330
1F
100
AcDbEntity
  8
1
  6
Continuous
 62
     7
100
AcDbLine
 10
29.08740170092142
 20
-15.95105206959724
 30
0.0
 11
30.58740170092142
 21
-15.95105206959724
 31
0.0
  0
LINE
  5
15A
102
{ACAD_REACTORS
330
195
330
195
102
}
330
1F
100
AcDbEntity
  8
1
  6
Continuous
 62
     7
100
AcDbLine
 10
30.58740170092142
 20
-15.95105206959724
 30
0.0
 11
30.58740170092142
 21
-23.95105206959723
 31
0.0
  0
LINE
  5
15B
102
{ACAD_REACTORS
330
195
330
195
102
}
330
1F
100
AcDbEntity
  8
1
  6
Continuous
 62
     7
100
AcDbLine
 10
31.08740170092142
 20
-24.45105206959723
 30
0.0
 11
37.08740170092142
 21
-24.45105206959723
 31
0.0
  0
LINE
  5
15C
102
{ACAD_REACTORS
330
195
330
195
102
}
330
1F
100
AcDbEntity
  8
1
  6
Continuous
 62
     7
100
AcDbLine
 10
37.58740170092142
 20
-23.95105206959723
 30
0.0
 11
37.58740170092142
 21
21.54894793040276
 31
0.0
  0
LINE
  5
15D
102
{ACAD_REACTORS
330
195
330
195
102
}
330
1F
100
AcDbEntity
  8
1
  6
Continuous
 62
     7
100
AcDbLine
 10
37.08740170092142
 20
22.04894793040276
 30
0.0
 11
21.38152473177763
 21
22.04894793040276
 31
0.0
  0
ARC
  5
15E
330
1F
100
AcDbEntity
  8
1
  6
Continuous
 62
     7
100
AcDbCircle
 10
-25.91259829907857
 20
-29.95105206959723
 30
0.0
 40
6.499999999999996
100
AcDbArc
 50
180.0
 51
-53.13010235415602
  0
ARC
  5
15F
330
1F
100
AcDbEntity
  8
1
  6
Continuous
 62
     7
100
AcDbCircle
 10
-25.91259829907857
 20
-29.95105206959723
 30
0.0
 40
6.499999999999991
100
AcDbArc
 50
-53.13010235415602
 51
-1.10997479900778
  0
ARC
  5
160
330
1F
100
AcDbEntity
  8
1
  6
Continuous
 62
     7
100
AcDbCircle
 10
-25.91259829907857
 20
-29.95105206959723
 30
0.0
 40
3.000000000000023
100
AcDbArc
 50
117.486426250381
 51
180.0
  0
ARC
  5
161
330
1F
100
AcDbEntity
  8
1
  6
Continuous
 62
     7
100
AcDbCircle
 10
-25.91259829907857
 20
-29.95105206959723
 30
0.0
 40
3.0
100
AcDbArc
 50
180.0
 51
117.486426250381
  0
ARC
  5
162
330
1F
100
AcDbEntity
  8
1
  6
Continuous
 62
     7
100
AcDbCircle
 10
-25.91259829907857
 20
-29.95105206959723
 30
0.0
 40
6.499999999999961
100
AcDbArc
 50
-1.10997479900778
 51
117.4864262503813
  0
ARC
  5
163
330
1F
100
AcDbEntity
  8
1
  6
Continuous
 62
     7
100
AcDbCircle
 10
43.48067686608204
 20
39.15713584330437
 30
0.0
 40
3.893275165160657
100
AcDbArc
 50
47.96800467692
 51
180.0
  0
ARC
  5
164
330
1F
100
AcDbEntity
  8
1
  6
Continuous
 62
     7
100
AcDbCircle
 10
43.58740170092142
 20
39.04894793040276
 30
0.0
 40
1.0
100
AcDbArc
 50
0.0
 51
180.0
  0
ARC
  5
165
330
1F
100
AcDbEntity
  8
1
  6
Continuous
 62
     7
100
AcDbCircle
 10
-18.41259829907857
 20
-28.70105206959723
 30
0.0
 40
3.0
100
AcDbArc
 50
-53.13010235415595
 51
-4.78019184719909
  0
ARC
  5
166
330
1F
100
AcDbEntity
  8
1
  6
Continuous
 62
     7
100
AcDbCircle
 10
-18.41259829907857
 20
-28.70105206959723
 30
0.0
 40
0.4999999999999993
100
AcDbArc
 50
-53.13010235415582
 51
-30.00000000000115
  0
ARC
  5
167
330
1F
100
AcDbEntity
  8
1
  6
Continuous
 62
     7
100
AcDbCircle
 10
-18.41259829907857
 20
-28.70105206959723
 30
0.0
 40
3.000000000000041
100
AcDbArc
 50
-4.78019184719909
 51
0.0
  0
ARC
  5
168
330
1F
100
AcDbEntity
  8
1
  6
Continuous
 62
     7
100
AcDbCircle
 10
-18.41259829907857
 20
-28.70105206959723
 30
0.0
 40
0.4999999999999826
100
AcDbArc
 50
-30.00000000000115
 51
0.0
  0
ARC
  5
169
330
1F
100
AcDbEntity
  8
1
  6
Continuous
 62
     7
100
AcDbCircle
 10
-11.91259829907857
 20
-25.95105206959723
 30
0.0
 40
0.5
100
AcDbArc
 50
180.0
 51
-90.0
  0
ARC
  5
16A
330
1F
100
AcDbEntity
  8
1
  6
Continuous
 62
     7
100
AcDbCircle
 10
-7.91259829907857
 20
-25.95105206959723
 30
0.0
 40
0.5
100
AcDbArc
 50
-90.0
 51
0.0
  0
ARC
  5
16B
330
1F
100
AcDbEntity
  8
1
  6
Continuous
 62
     7
100
AcDbCircle
 10
0.08740170092143
 20
-25.95105206959723
 30
0.0
 40
0.5
100
AcDbArc
 50
180.0
 51
-90.0
  0
ARC
  5
16C
330
1F
100
AcDbEntity
  8
1
  6
Continuous
 62
     7
100
AcDbCircle
 10
4.08740170092142
 20
-25.95105206959723
 30
0.0
 40
0.5
100
AcDbArc
 50
-90.0
 51
0.0
  0
ARC
  5
16D
330
1F
100
AcDbEntity
  8
1
  6
Continuous
 62
     7
100
AcDbCircle
 10
-5.75032063891017
 20
-22.36991323951305
 30
0.0
 40
0.5811388300841891
100
AcDbArc
 50
-90.0
 51
-18.43494882292223
  0
ARC
  5
16E
330
1F
100
AcDbEntity
  8
1
  6
Continuous
 62
     7
100
AcDbCircle
 10
-6.83145946899437
 20
-20.86991323951305
 30
0.0
 40
0.5811388300841891
100
AcDbArc
 50
-90.0
 51
-18.43494882292221
  0
ARC
  5
16F
330
1F
100
AcDbEntity
  8
1
  6
Continuous
 62
     7
100
AcDbCircle
 10
-5.41259829907857
 20
-25.95105206959723
 30
0.0
 40
0.5
100
AcDbArc
 50
180.0
 51
-90.0
  0
ARC
  5
170
330
1F
100
AcDbEntity
  8
1
  6
Continuous
 62
     7
100
AcDbCircle
 10
-2.41259829907857
 20
-25.95105206959723
 30
0.0
 40
0.5
100
AcDbArc
 50
-90.0
 51
0.0
  0
ARC
  5
171
330
1F
100
AcDbEntity
  8
1
  6
Continuous
 62
     7
100
AcDbCircle
 10
21.18623011188413
 20
-4.95105206959724
 30
0.0
 40
1.499999999999984
100
AcDbArc
 50
-51.3401917459111
 51
51.3401917459111
  0
ARC
  5
172
330
1F
100
AcDbEntity
  8
1
  6
Continuous
 62
     7
100
AcDbCircle
 10
15.58740170092142
 20
-12.95105206959724
 30
0.0
 40
3.0
100
AcDbArc
 50
-90.0
 51
0.0
  0
ARC
  5
173
330
1F
100
AcDbEntity
  8
1
  6
Continuous
 62
     7
100
AcDbCircle
 10
17.08740170092142
 20
4.68292252661833
 30
0.0
 40
1.5
100
AcDbArc
 50
0.0
 51
59.99999999999973
  0
ARC
  5
174
330
1F
100
AcDbEntity
  8
1
  6
Continuous
 62
     7
100
AcDbCircle
 10
17.08740170092142
 20
10.49232360337682
 30
0.0
 40
1.500000000000002
100
AcDbArc
 50
-60.00000000000004
 51
0.0
  0
ARC
  5
175
330
1F
100
AcDbEntity
  8
1
  6
Continuous
 62
     7
100
AcDbCircle
 10
15.58740170092142
 20
35.04894793040276
 30
0.0
 40
3.0
100
AcDbArc
 50
180.0
 51
-90.0
  0
ARC
  5
176
330
1F
100
AcDbEntity
  8
1
  6
Continuous
 62
     7
100
AcDbCircle
 10
32.37394272191233
 20
50.54894793040275
 30
0.0
 40
1.0
100
AcDbArc
 50
90.0
 51
166.3730051401078
  0
ARC
  5
177
330
1F
100
AcDbEntity
  8
1
  6
Continuous
 62
     7
100
AcDbCircle
 10
62.97923185886242
 20
50.54894793040275
 30
0.0
 40
0.999999999999995
100
AcDbArc
 50
13.62699485989101
 51
90.0
  0
ARC
  5
178
330
1F
100
AcDbEntity
  8
1
  6
Continuous
 62
     7
100
AcDbCircle
 10
28.37394272191233
 20
34.04894793040276
 30
0.0
 40
2.0
100
AcDbArc
 50
-90.0
 51
-13.62699485989163
  0
ARC
  5
179
330
1F
100
AcDbEntity
  8
1
  6
Continuous
 62
     7
100
AcDbCircle
 10
42.58740170092142
 20
15.54894793040275
 30
0.0
 40
3.0
100
AcDbArc
 50
180.0
 51
-90.0
  0
ARC
  5
17A
330
1F
100
AcDbEntity
  8
1
  6
Continuous
 62
     7
100
AcDbCircle
 10
42.58740170092142
 20
-2.45105206959725
 30
0.0
 40
3.0
100
AcDbArc
 50
90.0
 51
180.0
  0
ARC
  5
17B
330
1F
100
AcDbEntity
  8
1
  6
Continuous
 62
     7
100
AcDbCircle
 10
58.13385345315604
 20
44.04894793040275
 30
0.0
 40
1.0
100
AcDbArc
 50
90.0
 51
170.0000000000013
  0
ARC
  5
17C
330
1F
100
AcDbEntity
  8
1
  6
Continuous
 62
     7
100
AcDbCircle
 10
66.83740170092142
 20
38.06190694838436
 30
0.0
 40
0.7499999999999908
100
AcDbArc
 50
-73.9222551796753
 51
16.07774482032605
  0
ARC
  5
17D
330
1F
100
AcDbEntity
  8
1
  6
Continuous
 62
     7
100
AcDbCircle
 10
66.83740170092142
 20
38.06190694838436
 30
0.0
 40
0.7500000000000356
100
AcDbArc
 50
-163.9222551796751
 51
-73.9222551796753
  0
ARC
  5
17E
330
1F
100
AcDbEntity
  8
1
  6
Continuous
 62
     7
100
AcDbCircle
 10
-12.41259829907857
 20
14.04894793040276
 30
0.0
 40
3.000000000000002
100
AcDbArc
 50
90.0
 51
180.0
  0
ARC
  5
17F
330
1F
100
AcDbEntity
  8
1
  6
Continuous
 62
     7
100
AcDbCircle
 10
26.80086067993054
 20
36.04894793040276
 30
0.0
 40
1.0
100
AcDbArc
 50
-90.0
 51
-13.62699485989185
  0
ARC
  5
180
330
1F
100
AcDbEntity
  8
1
  6
Continuous
 62
     7
100
AcDbCircle
 10
15.97923185886242
 20
50.54894793040275
 30
0.0
 40
0.9999999999999916
100
AcDbArc
 50
13.62699485989106
 51
90.0
  0
ARC
  5
181
330
1F
100
AcDbEntity
  8
1
  6
Continuous
 62
     7
100
AcDbCircle
 10
11.13385345315592
 20
44.04894793040275
 30
0.0
 40
1.0
100
AcDbArc
 50
90.0
 51
170.0000000000001
  0
ARC
  5
182
330
1F
100
AcDbEntity
  8
1
  6
Continuous
 62
     7
100
AcDbCircle
 10
19.83740170092142
 20
38.06190694838436
 30
0.0
 40
0.7499999999999898
100
AcDbArc
 50
-73.92225517967556
 51
16.07774482032605
  0
ARC
  5
183
330
1F
100
AcDbEntity
  8
1
  6
Continuous
 62
     7
100
AcDbCircle
 10
19.83740170092142
 20
38.06190694838436
 30
0.0
 40
0.7500000000000356
100
AcDbArc
 50
-163.9222551796751
 51
-73.92225517967556
  0
ARC
  5
184
102
{ACAD_REACTORS
330
194
330
194
102
}
330
1F
100
AcDbEntity
  8
1
  6
Continuous
 62
     7
100
AcDbCircle
 10
-44.91259829907857
 20
37.54894793040278
 30
0.0
 40
0.5
100
AcDbArc
 50
90.0
 51
180.0
  0
ARC
  5
185
102
{ACAD_REACTORS
330
194
330
194
102
}
330
1F
100
AcDbEntity
  8
1
  6
Continuous
 62
     7
100
AcDbCircle
 10
-18.91259829907857
 20
37.54894793040278
 30
0.0
 40
0.5
100
AcDbArc
 50
0.0
 51
90.0
  0
ARC
  5
186
102
{ACAD_REACTORS
330
194
330
194
102
}
330
1F
100
AcDbEntity
  8
1
  6
Continuous
 62
     7
100
AcDbCircle
 10
-18.91259829907857
 20
2.54894793040277
 30
0.0
 40
0.5
100
AcDbArc
 50
-90.0
 51
0.0
  0
ARC
  5
187
102
{ACAD_REACTORS
330
194
330
194
102
}
330
1F
100
AcDbEntity
  8
1
  6
Continuous
 62
     7
100
AcDbCircle
 10
-44.91259829907857
 20
2.54894793040277
 30
0.0
 40
0.5
100
AcDbArc
 50
180.0
 51
-90.0
  0
ARC
  5
188
102
{ACAD_REACTORS
330
194
330
194
102
}
330
1F
100
AcDbEntity
  8
1
  6
Continuous
 62
     7
100
AcDbCircle
 10
-44.91259829907857
 20
2.54894793040277
 30
0.0
 40
2.5
100
AcDbArc
 50
180.0
 51
-90.0
  0
ARC
  5
189
102
{ACAD_REACTORS
330
194
330
194
102
}
330
1F
100
AcDbEntity
  8
1
  6
Continuous
 62
     7
100
AcDbCircle
 10
-18.91259829907857
 20
37.54894793040278
 30
0.0
 40
2.5
100
AcDbArc
 50
0.0
 51
90.0
  0
ARC
  5
18A
102
{ACAD_REACTORS
330
194
330
194
102
}
330
1F
100
AcDbEntity
  8
1
  6
Continuous
 62
     7
100
AcDbCircle
 10
-44.91259829907857
 20
37.54894793040278
 30
0.0
 40
2.5
100
AcDbArc
 50
90.0
 51
180.0
  0
ARC
  5
18B
102
{ACAD_REACTORS
330
194
330
194
102
}
330
1F
100
AcDbEntity
  8
1
  6
Continuous
 62
     7
100
AcDbCircle
 10
-18.91259829907857
 20
2.54894793040277
 30
0.0
 40
2.5
100
AcDbArc
 50
-90.0
 51
0.0
  0
ARC
  5
18C
102
{ACAD_REACTORS
330
195
330
195
102
}
330
1F
100
AcDbEntity
  8
1
  6
Continuous
 62
     7
100
AcDbCircle
 10
21.38152473177763
 20
21.54894793040276
 30
0.0
 40
0.5
100
AcDbArc
 50
90.0
 51
170.0000000000028
  0
ARC
  5
18D
102
{ACAD_REACTORS
330
195
330
195
102
}
330
1F
100
AcDbEntity
  8
1
  6
Continuous
 62
     7
100
AcDbCircle
 10
37.08740170092142
 20
21.54894793040276
 30
0.0
 40
0.5
100
AcDbArc
 50
0.0
 51
90.0
  0
ARC
  5
18E
102
{ACAD_REACTORS
330
195
330
195
102
}
330
1F
100
AcDbEntity
  8
1
  6
Continuous
 62
     7
100
AcDbCircle
 10
31.08740170092142
 20
-23.95105206959723
 30
0.0
 40
0.5
100
AcDbArc
 50
180.0
 51
-90.0
  0
ARC
  5
18F
102
{ACAD_REACTORS
330
195
330
195
102
}
330
1F
100
AcDbEntity
  8
1
  6
Continuous
 62
     7
100
AcDbCircle
 10
37.08740170092142
 20
-23.95105206959723
 30
0.0
 40
0.5
100
AcDbArc
 50
-90.0
 51
0.0
  0
ARC
  5
190
102
{ACAD_REACTORS
330
195
330
195
102
}
330
1F
100
AcDbEntity
  8
1
  6
Continuous
 62
     7
100
AcDbCircle
 10
31.08740170092142
 20
-23.95105206959723
 30
0.0
 40
2.0
100
AcDbArc
 50
180.0
 51
-90.0
  0
ARC
  5
191
102
{ACAD_REACTORS
330
195
330
195
102
}
330
1F
100
AcDbEntity
  8
1
  6
Continuous
 62
     7
100
AcDbCircle
 10
37.08740170092142
 20
-23.95105206959723
 30
0.0
 40
2.0
100
AcDbArc
 50
-90.0
 51
0.0
  0
ARC
  5
192
102
{ACAD_REACTORS
330
195
330
195
102
}
330
1F
100
AcDbEntity
  8
1
  6
Continuous
 62
     7
100
AcDbCircle
 10
37.08740170092142
 20
21.54894793040276
 30
0.0
 40
2.0
100
AcDbArc
 50
0.0
 51
90.0
  0
ARC
  5
193
102
{ACAD_REACTORS
330
195
330
195
102
}
330
1F
100
AcDbEntity
  8
1
  6
Continuous
 62
     7
100
AcDbCircle
 10
21.38152473177763
 20
21.54894793040276
 30
0.0
 40
2.0
100
AcDbArc
 50
90.0
 51
170.0000000000004
  0
HATCH
  5
194
330
1F
100
AcDbEntity
  8
1
  6
Continuous
 62
     3
100
AcDbHatch
 10
0.0
 20
0.0
 30
0.0
210
0.0
220
0.0
230
1.0
  2
SOLID
 70
     1
 71
     1
 91
        2
 92
        1
 93
        8
 72
     2
 10
-18.91259829907857
 20
37.54894793040278
 40
2.5
 50
0.0
 51
90.0
 73
     1
 72
     1
 10
-18.91259829907857
 20
40.04894793040278
 11
-44.91259829907857
 21
40.04894793040278
 72
     2
 10
-44.91259829907857
 20
37.54894793040278
 40
2.5
 50
90.0
 51
180.0
 73
     1
 72
     1
 10
-47.41259829907857
 20
37.54894793040278
 11
-47.41259829907857
 21
2.548947930402775
 72
     2
 10
-44.91259829907857
 20
2.548947930402775
 40
2.5
 50
180.0
 51
270.0
 73
     1
 72
     1
 10
-44.91259829907857
 20
0.0489479304027753
 11
-18.91259829907857
 21
0.0489479304027753
 72
     2
 10
-18.91259829907857
 20
2.548947930402775
 40
2.5
 50
270.0
 51
360.0
 73
     1
 72
     1
 10
-16.41259829907857
 20
2.548947930402775
 11
-16.41259829907857
 21
37.54894793040278
 97
        8
330
189
330
14C
330
18A
330
14D
330
188
330
14A
330
18B
330
14B
 92
       16
 93
        8
 72
     2
 10
-44.91259829907857
 20
37.54894793040278
 40
0.5
 50
90.0
 51
180.0
 73
     1
 72
     1
 10
-45.41259829907857
 20
37.54894793040278
 11
-45.41259829907857
 21
2.548947930402775
 72
     2
 10
-44.91259829907857
 20
2.548947930402775
 40
0.5
 50
180.0
 51
270.0
 73
     1
 72
     1
 10
-44.91259829907857
 20
2.048947930402775
 11
-18.91259829907857
 21
2.048947930402775
 72
     2
 10
-18.91259829907857
 20
2.548947930402775
 40
0.5
 50
270.0
 51
360.0
 73
     1
 72
     1
 10
-18.41259829907857
 20
2.548947930402775
 11
-18.41259829907857
 21
37.54894793040278
 72
     2
 10
-18.91259829907857
 20
37.54894793040278
 40
0.5
 50
0.0
 51
90.0
 73
     1
 72
     1
 10
-18.91259829907857
 20
38.04894793040278
 11
-44.91259829907857
 21
38.04894793040278
 97
        8
330
184
330
151
330
187
330
14E
330
186
330
14F
330
185
330
150
 75
     0
 76
     1
 98
        1
 10
0.0
 20
0.0
  0
HATCH
  5
195
330
1F
100
AcDbEntity
  8
1
  6
Continuous
 62
     3
100
AcDbHatch
 10
0.0
 20
0.0
 30
0.0
210
0.0
220
0.0
230
1.0
  2
SOLID
 70
     1
 71
     1
 91
        1
 92
        1
 93
       20
 72
     1
 10
39.08740170092142
 20
21.54894793040276
 11
39.08740170092142
 21
-23.95105206959723
 72
     2
 10
37.08740170092142
 20
-23.95105206959723
 40
2.0
 50
0.0
 51
90.0
 73
     0
 72
     1
 10
37.08740170092142
 20
-25.95105206959723
 11
31.08740170092142
 21
-25.95105206959723
 72
     2
 10
31.08740170092142
 20
-23.95105206959723
 40
2.0
 50
90.0
 51
180.0
 73
     0
 72
     1
 10
29.08740170092142
 20
-23.95105206959723
 11
29.08740170092142
 21
-15.95105206959724
 72
     1
 10
29.08740170092142
 20
-15.95105206959724
 11
30.58740170092142
 21
-15.95105206959724
 72
     1
 10
30.58740170092142
 20
-15.95105206959724
 11
30.58740170092142
 21
-23.95105206959723
 72
     2
 10
31.08740170092142
 20
-23.95105206959723
 40
0.5
 50
180.0
 51
270.0
 73
     1
 72
     1
 10
31.08740170092142
 20
-24.45105206959723
 11
37.08740170092142
 21
-24.45105206959723
 72
     2
 10
37.08740170092142
 20
-23.95105206959723
 40
0.5
 50
270.0
 51
360.0
 73
     1
 72
     1
 10
37.58740170092142
 20
-23.95105206959723
 11
37.58740170092142
 21
21.54894793040276
 72
     2
 10
37.08740170092142
 20
21.54894793040276
 40
0.5
 50
0.0
 51
90.0
 73
     1
 72
     1
 10
37.08740170092142
 20
22.04894793040276
 11
21.38152473177763
 21
22.04894793040276
 72
     2
 10
21.38152473177763
 20
21.54894793040276
 40
0.5
 50
90.0
 51
170.0000000000028
 73
     1
 72
     1
 10
20.88912085527142
 20
21.63577201923622
 11
20.06461333043973
 21
11.28847566390236
 72
     1
 10
20.06461333043973
 20
11.28847566390236
 11
18.58740170092142
 21
11.54894793040276
 72
     1
 10
18.58740170092142
 20
11.54894793040276
 11
19.41190922575314
 21
21.89624428573662
 72
     2
 10
21.38152473177763
 20
21.54894793040276
 40
2.0
 50
189.9999999999996
 51
270.0
 73
     0
 72
     1
 10
21.38152473177763
 20
23.54894793040276
 11
37.08740170092142
 21
23.54894793040276
 72
     2
 10
37.08740170092142
 20
21.54894793040276
 40
2.0
 50
270.0
 51
360.0
 73
     0
 97
       20
330
155
330
193
330
154
330
153
330
152
330
18C
330
15D
330
18D
330
15C
330
18F
330
15B
330
18E
330
15A
330
159
330
158
330
190
330
157
330
191
330
156
330
192
 75
     0
 76
     1
 98
        1
 10
0.0
 20
0.0
  0
ENDSEC
  0
SECTION
  2
OBJECTS
  0
DICTIONARY
  5
C
330
0
100
AcDbDictionary
281
     1
  3
ACAD_GROUP
350
D
  3
ACAD_LAYOUT
350
1A
  3
ACAD_MLINESTYLE
350
17
  3
ACAD_PLOTSETTINGS
350
19
  3
ACAD_PLOTSTYLENAME
350
E
  0
DICTIONARY
  5
D
102
{ACAD_REACTORS
330
C
102
}
330
C
100
AcDbDictionary
281
     1
  0
DICTIONARY
  5
1A
102
{ACAD_REACTORS
330
C
102
}
330
C
100
AcDbDictionary
281
     1
  3
Layout1
350
1E
  3
Layout2
350
26
  3
Model
350
22
  0
DICTIONARY
  5
17
102
{ACAD_REACTORS
330
C
102
}
330
C
100
AcDbDictionary
281
     1
  3
Standard
350
18
  0
DICTIONARY
  5
19
102
{ACAD_REACTORS
330
C
102
}
330
C
100
AcDbDictionary
281
     1
  0
ACDBDICTIONARYWDFLT
  5
E
102
{ACAD_REACTORS
330
C
102
}
330
C
100
AcDbDictionary
281
     1
  3
Normal
350
F
100
AcDbDictionaryWithDefault
340
F
  0
LAYOUT
  5
1E
102
{ACAD_REACTORS
330
1A
102
}
330
1A
100
AcDbPlotSettings
  1

  2

  4

  6

 40
0.0
 41
0.0
 42
0.0
 43
0.0
 44
0.0
 45
0.0
 46
0.0
 47
0.0
 48
0.0
 49
0.0
140
0.0
141
0.0
142
1.0
143
1.0
 70
   688
 72
     0
 73
     0
 74
     5
  7

 75
    16
 76
     0
 77
     2
 78
   300
147
1.0
148
0.0
149
0.0
100
AcDbLayout
  1
Layout1
 70
     1
 71
     1
 10
0.0
 20
0.0
 11
0.0
 21
0.0
 12
0.0
 22
0.0
 32
0.0
 14
0.0
 24
0.0
 34
0.0
 15
0.0
 25
0.0
 35
0.0
146
0.0
 13
0.0
 23
0.0
 33
0.0
 16
1.0
 26
0.0
 36
0.0
 17
0.0
 27
1.0
 37
0.0
 76
     0
330
1B
  0
LAYOUT
  5
26
102
{ACAD_REACTORS
330
1A
102
}
330
1A
100
AcDbPlotSettings
  1

  2

  4

  6

 40
0.0
 41
0.0
 42
0.0
 43
0.0
 44
0.0
 45
0.0
 46
0.0
 47
0.0
 48
0.0
 49
0.0
140
0.0
141
0.0
142
1.0
143
1.0
 70
   688
 72
     0
 73
     0
 74
     5
  7

 75
    16
 76
     0
 77
     2
 78
   300
147
1.0
148
0.0
149
0.0
100
AcDbLayout
  1
Layout2
 70
     1
 71
     2
 10
0.0
 20
0.0
 11
0.0
 21
0.0
 12
0.0
 22
0.0
 32
0.0
 14
0.0
 24
0.0
 34
0.0
 15
0.0
 25
0.0
 35
0.0
146
0.0
 13
0.0
 23
0.0
 33
0.0
 16
1.0
 26
0.0
 36
0.0
 17
0.0
 27
1.0
 37
0.0
 76
     0
330
23
  0
LAYOUT
  5
22
102
{ACAD_REACTORS
330
1A
102
}
330
1A
100
AcDbPlotSettings
  1

  2

  4

  6

 40
0.0
 41
0.0
 42
0.0
 43
0.0
 44
0.0
 45
0.0
 46
0.0
 47
0.0
 48
0.0
 49
0.0
140
0.0
141
0.0
142
1.0
143
1.0
 70
  1712
 72
     0
 73
     0
 74
     0
  7

 75
     0
 76
     0
 77
     2
 78
   300
147
1.0
148
0.0
149
0.0
100
AcDbLayout
  1
Model
 70
     1
 71
     0
 10
0.0
 20
0.0
 11
0.0
 21
0.0
 12
0.0
 22
0.0
 32
0.0
 14
-56.41259829907857
 24
-38.19972276150023
 34
0.0
 15
67.5874017009214
 25
51.54894793040278
 35
0.0
146
0.0
 13
0.0
 23
0.0
 33
0.0
 16
1.0
 26
0.0
 36
0.0
 17
0.0
 27
1.0
 37
0.0
 76
     0
330
1F
  0
MLINESTYLE
  5
18
102
{ACAD_REACTORS
330
17
102
}
330
17
100
AcDbMlineStyle
  2
Standard
 70
     0
  3

 62
   256
 51
90.0
 52
90.0
 71
     2
 49
0.5
 62
   256
  6
BYLAYER
 49
-0.5
 62
   256
  6
BYLAYER
  0
ACDBPLACEHOLDER
  5
F
102
{ACAD_REACTORS
330
E
102
}
330
E
  0
ENDSEC
  0
EOF
