999
DXF file: d:\tmp\workingDir\0000076860\teg_310_2d_180_q01_01.dxf
999
Pro/ENGINEER 2016380 by Parametric Technology Corporation
  0
SECTION
  2
HEADER
  9
$ACADVER
  1
AC1014
  9
$DWGCODEPAGE
  3
ANSI_1252
  9
$EXTMAX
 10
134.874
 20
90.0
 30
0.0
  9
$EXTMIN
 10
0.0
 20
-0.0
 30
0.0
  9
$LIMMIN
 10
0.0
 20
-0.0
  9
$LIMMAX
 10
134.874
 20
90.0
  9
$VIEWCTR
 10
67.437
 20
45.0
  9
$VIEWSIZE
 40
90.0
  9
$CLAYER
  8
0
  9
$LTSCALE
 40
7.41807
  9
$CELTYPE
  6
BYLAYER
  9
$DIMSCALE
 40
1.0
  9
$DIMASZ
 40
3.5
  9
$DIMEXO
 40
0.0
  9
$DIMDLI
 40
5.125212
  9
$DIMEXE
 40
2.0
  9
$DIMCEN
 40
1.213866
  9
$DIMLFAC
 40
1.0
  9
$DIMBLK
  1
_ARROW_FILLED
  9
$DIMALT
 70
0
  9
$DIMALTF
 40
25.4
  9
$DIMTXT
 40
3.5
  9
$DIMTOL
 70
1
  9
$DIMLIM
 70
0
  9
$DIMTFAC
 40
1.0
  9
$DIMTP
 40
0.01
  9
$DIMTM
 40
0.01
  9
$DIMGAP
 40
0.625
  9
$AUNITS
 70
0
  9
$PDMODE
 70
0
  9
$PDSIZE
 40
0.04
  9
$HANDSEED
  5
361
  9
$TILEMODE
 70
1
  9
$MEASUREMENT
 70
1
  0
ENDSEC
  0
SECTION
  2
CLASSES
  0
ENDSEC
  0
SECTION
  2
TABLES
  0
TABLE
  2
VPORT
  5
8
100
AcDbSymbolTable
 70
2
  0
VPORT
  5
1F4
100
AcDbSymbolTableRecord
100
AcDbViewportTableRecord
  2
*ACTIVE
 70
0
 10
0.0
 20
0.0
 11
1.0
 21
1.0
 12
67.437
 22
45.0
 13
0.0
 23
0.0
 14
1.0
 24
1.0
 15
0.0
 25
0.0
 16
0.0
 26
0.0
 36
1.0
 17
0.0
 27
0.0
 37
0.0
 40
90.0
 41
1.4986
 42
50.0
 43
0.0
 44
0.0
 50
0.0
 51
0.0
 71
0
 72
100
 73
1
 74
1
 75
0
 76
0
 77
0
 78
0
  0
ENDTAB
  0
TABLE
  2
LTYPE
  5
5
100
AcDbSymbolTable
 70
6
  0
LTYPE
  5
14
100
AcDbSymbolTableRecord
100
AcDbLinetypeTableRecord
  2
BYBLOCK
 70
0
  3

 72
65
 73
0
 40
0.0
  0
LTYPE
  5
15
100
AcDbSymbolTableRecord
100
AcDbLinetypeTableRecord
  2
BYLAYER
 70
0
  3

 72
65
 73
0
 40
0.0
  0
LTYPE
  5
16
100
AcDbSymbolTableRecord
100
AcDbLinetypeTableRecord
  2
CONTINUOUS
 70
64
  3
Solid line
 72
65
 73
0
 40
0.0
  0
LTYPE
  5
1F5
100
AcDbSymbolTableRecord
100
AcDbLinetypeTableRecord
  2
CENTER
 70
64
  3
____ _ ____ _ ____ _ ____ _ ____ _ ____ _ ____
 72
65
 73
4
 40
0.6
 49
0.375
 74
0
 49
-0.075
 74
0
 49
0.075
 74
0
 49
-0.075
 74
0
  0
LTYPE
  5
1F6
100
AcDbSymbolTableRecord
100
AcDbLinetypeTableRecord
  2
HIDDEN
 70
64
  3
- - - - - - - - - - - - - - - - - - - -
 72
65
 73
2
 40
0.2
 49
0.1
 74
0
 49
-0.1
 74
0
  0
LTYPE
  5
1F7
100
AcDbSymbolTableRecord
100
AcDbLinetypeTableRecord
  2
PHANTOM
 70
64
  3
_____ _ _ _____ _ _ _____ _ _ _____
 72
65
 73
6
 40
0.8
 49
0.45
 74
0
 49
-0.05
 74
0
 49
0.1
 74
0
 49
-0.05
 74
0
 49
0.1
 74
0
 49
-0.05
 74
0
  0
LTYPE
  5
1F8
100
AcDbSymbolTableRecord
100
AcDbLinetypeTableRecord
  2
DOT
 70
64
  3
. . . . . . . . . . . . . . . . . . . .
 72
65
 73
2
 40
0.2
 49
0.1
 74
0
 49
-0.1
 74
0
  0
LTYPE
  5
1F9
100
AcDbSymbolTableRecord
100
AcDbLinetypeTableRecord
  2
DASHED
 70
64
  3
- - - - - - - - - - - - - - - - - - - -
 72
65
 73
2
 40
0.2
 49
0.1
 74
0
 49
-0.1
 74
0
  0
ENDTAB
  0
TABLE
  2
LAYER
  5
2
100
AcDbSymbolTable
 70
36
  0
LAYER
  5
10
100
AcDbSymbolTableRecord
100
AcDbLayerTableRecord
  2
0
 70
0
 62
7
  6
CONTINUOUS
  0
LAYER
  5
1FA
100
AcDbSymbolTableRecord
100
AcDbLayerTableRecord
  2
DEFAULT_1
 70
0
 62
7
  6
CENTER
  0
LAYER
  5
1FB
100
AcDbSymbolTableRecord
100
AcDbLayerTableRecord
  2
DEFAULT_2
 70
0
 62
8
  6
HIDDEN
  0
LAYER
  5
1FC
100
AcDbSymbolTableRecord
100
AcDbLayerTableRecord
  2
DEFAULT_3
 70
0
 62
7
  6
PHANTOM
  0
LAYER
  5
1FD
100
AcDbSymbolTableRecord
100
AcDbLayerTableRecord
  2
A_ACHSEN
 70
0
 62
7
  6
CONTINUOUS
  0
LAYER
  5
1FE
100
AcDbSymbolTableRecord
100
AcDbLayerTableRecord
  2
A_BASISEBENEN
 70
0
 62
7
  6
CONTINUOUS
  0
LAYER
  5
1FF
100
AcDbSymbolTableRecord
100
AcDbLayerTableRecord
  2
A_BEMASSUNGEN
 70
0
 62
7
  6
CONTINUOUS
  0
LAYER
  5
200
100
AcDbSymbolTableRecord
100
AcDbLayerTableRecord
  2
A_BOHRUNGEN
 70
0
 62
7
  6
CONTINUOUS
  0
LAYER
  5
201
100
AcDbSymbolTableRecord
100
AcDbLayerTableRecord
  2
A_EBENEN
 70
0
 62
7
  6
CONTINUOUS
  0
LAYER
  5
202
100
AcDbSymbolTableRecord
100
AcDbLayerTableRecord
  2
A_FASEN
 70
0
 62
7
  6
CONTINUOUS
  0
LAYER
  5
203
100
AcDbSymbolTableRecord
100
AcDbLayerTableRecord
  2
A_FLAECHEN
 70
0
 62
7
  6
CONTINUOUS
  0
LAYER
  5
204
100
AcDbSymbolTableRecord
100
AcDbLayerTableRecord
  2
A_FL_VERBAENDE
 70
0
 62
7
  6
CONTINUOUS
  0
LAYER
  5
205
100
AcDbSymbolTableRecord
100
AcDbLayerTableRecord
  2
A_KURVEN
 70
0
 62
7
  6
CONTINUOUS
  0
LAYER
  5
206
100
AcDbSymbolTableRecord
100
AcDbLayerTableRecord
  2
A_NOTIZEN_SYMB
 70
0
 62
7
  6
CONTINUOUS
  0
LAYER
  5
207
100
AcDbSymbolTableRecord
100
AcDbLayerTableRecord
  2
A_PUNKTE
 70
0
 62
7
  6
CONTINUOUS
  0
LAYER
  5
208
100
AcDbSymbolTableRecord
100
AcDbLayerTableRecord
  2
A_RUNDUNGEN
 70
0
 62
7
  6
CONTINUOUS
  0
LAYER
  5
209
100
AcDbSymbolTableRecord
100
AcDbLayerTableRecord
  2
BASISEBENEN
 70
0
 62
7
  6
CONTINUOUS
  0
LAYER
  5
20A
100
AcDbSymbolTableRecord
100
AcDbLayerTableRecord
  2
GRAVUR
 70
0
 62
7
  6
CONTINUOUS
  0
LAYER
  5
20B
100
AcDbSymbolTableRecord
100
AcDbLayerTableRecord
  2
SCHRIFTZUG_DREHMOMENT
 70
0
 62
7
  6
CONTINUOUS
  0
LAYER
  5
20C
100
AcDbSymbolTableRecord
100
AcDbLayerTableRecord
  2
XSEC_DATUMS
 70
0
 62
7
  6
CONTINUOUS
  0
ENDTAB
  0
TABLE
  2
STYLE
  5
3
100
AcDbSymbolTable
 70
1
  0
STYLE
  5
11
100
AcDbSymbolTableRecord
100
AcDbTextStyleTableRecord
  2
STANDARD
 70
0
 40
0.0
 41
1.0
 50
0.0
 71
0
 42
0.2
  3
txt
  4

  0
STYLE
  5
20D
100
AcDbSymbolTableRecord
100
AcDbTextStyleTableRecord
  2
TEXTSTYLE_1
 70
0
 40
0.0
 41
0.8
 50
0.0
 71
0
 42
0.2
  3
gdt
  4

  0
ENDTAB
  0
TABLE
  2
VIEW
  5
6
100
AcDbSymbolTable
 70
0
  0
ENDTAB
  0
TABLE
  2
UCS
  5
7
100
AcDbSymbolTable
 70
0
  0
ENDTAB
  0
TABLE
  2
APPID
  5
9
100
AcDbSymbolTable
 70
1
  0
APPID
  5
20E
100
AcDbSymbolTableRecord
100
AcDbRegAppTableRecord
  2
ACAD
 70
0
  0
ENDTAB
  0
TABLE
  2
BLOCK_RECORD
  5
1
100
AcDbSymbolTable
 70
0
  0
BLOCK_RECORD
  5
1F
100
AcDbSymbolTableRecord
100
AcDbBlockTableRecord
  2
*MODEL_SPACE
  0
BLOCK_RECORD
  5
1B
100
AcDbSymbolTableRecord
100
AcDbBlockTableRecord
  2
*PAPER_SPACE
  0
ENDTAB
  0
TABLE
  2
DIMSTYLE
  5
A
100
AcDbSymbolTable
 70
1
  0
DIMSTYLE
105
20F
100
AcDbSymbolTableRecord
100
AcDbDimStyleTableRecord
  2
STANDARD
 70
0
  3

  4

  5
_ARROW_FILLED
  6
_ARROW_FILLED
  7
_ARROW_FILLED
 40
1.0
 41
3.5
 42
0.0
 43
0.38
 44
2.0
 45
0.0
 46
0.0
 47
0.01
 48
0.01
140
3.5
141
0.09
142
0.0
143
25.4
144
1.0
145
0.0
146
1.0
147
0.625
 71
1.0
 72
0.0
 73
0
 74
0
 75
0
 76
0
 77
1
 78
8
170
0
171
1
172
0
173
0
174
0
175
0
176
0
177
0
178
5
270
2
271
2
272
2
273
2
274
2
275
0
280
0
281
0
282
0
283
1
284
8
285
0
286
0
287
3
288
0
340
11
  0
ENDTAB
  0
ENDSEC
  0
SECTION
  2
BLOCKS
  0
BLOCK
  5
20
100
AcDbEntity
  8
0
100
AcDbBlockBegin
  2
*MODEL_SPACE
 70
0
 10
0.0
 20
0.0
 30
0.0
  3
*MODEL_SPACE
  1

  0
ENDBLK
  5
21
100
AcDbEntity
  8
0
100
AcDbBlockEnd
  0
BLOCK
  5
1C
100
AcDbEntity
  8
0
100
AcDbBlockBegin
  2
*PAPER_SPACE
 70
0
 10
0.0
 20
0.0
 30
0.0
  3
*PAPER_SPACE
  1

  0
ENDBLK
  5
1D
100
AcDbEntity
  8
0
100
AcDbBlockEnd
  0
ENDSEC
  0
SECTION
  2
ENTITIES
  0
LINE
  5
210
100
AcDbEntity
  8
0
100
AcDbLine
 62
7
  6
CONTINUOUS
 10
5.8435941439
 20
17.5701467772
 11
5.8435941439
 21
24.5701467772
  0
LINE
  5
211
100
AcDbEntity
  8
0
100
AcDbLine
 62
7
  6
CONTINUOUS
 10
5.8435941439
 20
17.5701467772
 11
6.3435941439
 21
17.0701467772
  0
LINE
  5
212
100
AcDbEntity
  8
DEFAULT_2
100
AcDbLine
 62
8
  6
HIDDEN
 10
88.1435941439
 20
3.6701467772
 11
80.6435941439
 21
3.6701467772
  0
LINE
  5
213
100
AcDbEntity
  8
0
100
AcDbLine
 62
7
  6
CONTINUOUS
 10
80.6435941439
 20
3.6701467772
 11
80.1435941439
 21
3.6701467772
  0
LINE
  5
214
100
AcDbEntity
  8
A_RUNDUNGEN
100
AcDbLine
 62
7
  6
CONTINUOUS
 10
80.6435941439
 20
3.6701467772
 11
94.6435941439
 21
3.6701467772
  0
LINE
  5
215
100
AcDbEntity
  8
A_ACHSEN
100
AcDbLine
 62
8
  6
HIDDEN
 10
81.1435941439
 20
3.6701467772
 11
86.1435941439
 21
3.6701467772
  0
LINE
  5
216
100
AcDbEntity
  8
A_ACHSEN
100
AcDbLine
 62
8
  6
HIDDEN
 10
86.6435941439
 20
4.1701467772
 11
80.6435941439
 21
4.1701467772
  0
LINE
  5
217
100
AcDbEntity
  8
A_ACHSEN
100
AcDbLine
 62
8
  6
HIDDEN
 10
86.6435941439
 20
10.6701467772
 11
80.6435941439
 21
10.6701467772
  0
LINE
  5
218
100
AcDbEntity
  8
0
100
AcDbLine
 62
7
  6
CONTINUOUS
 10
5.8435941439
 20
24.5701467772
 11
6.3435941439
 21
25.0701467772
  0
LINE
  5
219
100
AcDbEntity
  8
DEFAULT_2
100
AcDbLine
 62
8
  6
HIDDEN
 10
85.9435941439
 20
11.3701467772
 11
81.3435941439
 21
11.3701467772
  0
LINE
  5
21A
100
AcDbEntity
  8
A_ACHSEN
100
AcDbLine
 62
8
  6
HIDDEN
 10
81.6435941439
 20
11.6701467772
 11
85.6435941439
 21
11.6701467772
  0
LINE
  5
21B
100
AcDbEntity
  8
A_RUNDUNGEN
100
AcDbLine
 62
7
  6
CONTINUOUS
 10
86.6435941439
 20
11.8701467772
 11
81.0661094244
 21
11.8701467772
  0
LINE
  5
21C
100
AcDbEntity
  8
A_ACHSEN
100
AcDbLine
 62
8
  6
HIDDEN
 10
81.1435941439
 20
11.8701467772
 11
86.1435941439
 21
11.8701467772
  0
LINE
  5
21D
100
AcDbEntity
  8
0
100
AcDbLine
 62
7
  6
CONTINUOUS
 10
79.2092246597
 20
15.0701467772
 11
78.3175071873
 21
15.0701467772
  0
LINE
  5
21E
100
AcDbEntity
  8
A_RUNDUNGEN
100
AcDbLine
 62
7
  6
CONTINUOUS
 10
79.2092246597
 20
15.0701467772
 11
85.6471749828
 21
15.0701467772
  0
LINE
  5
21F
100
AcDbEntity
  8
0
100
AcDbLine
 62
7
  6
CONTINUOUS
 10
85.4708726814
 20
15.8701467772
 11
78.1435941439
 21
15.8701467772
  0
LINE
  5
220
100
AcDbEntity
  8
0
100
AcDbLine
 62
7
  6
CONTINUOUS
 10
76.6435941439
 20
16.1701467772
 11
77.552289796
 21
16.1701467772
  0
LINE
  5
221
100
AcDbEntity
  8
0
100
AcDbLine
 62
7
  6
CONTINUOUS
 10
6.3435941439
 20
17.0701467772
 11
85.3435941439
 21
17.0701467772
  0
LINE
  5
222
100
AcDbEntity
  8
A_ACHSEN
100
AcDbLine
 62
7
  6
CENTER
 10
87.2102561829
 20
19.1701550311
 11
96.0769274763
 21
19.1701550311
  0
LINE
  5
223
100
AcDbEntity
  8
0
100
AcDbLine
 62
7
  6
CONTINUOUS
 10
89.7094203927
 20
19.6701467772
 11
89.9665431607
 21
19.6701467772
  0
LINE
  5
224
100
AcDbEntity
  8
0
100
AcDbLine
 62
7
  6
CONTINUOUS
 10
93.320645127
 20
19.6701467772
 11
93.5777678951
 21
19.6701467772
  0
LINE
  5
225
100
AcDbEntity
  8
DEFAULT_2
100
AcDbLine
 62
8
  6
HIDDEN
 10
85.1435941439
 20
3.8187332458
 11
85.3756449514
 21
3.6701467772
  0
LINE
  5
226
100
AcDbEntity
  8
0
100
AcDbLine
 62
7
  6
CONTINUOUS
 10
91.716974428
 20
22.6701467772
 11
90.7736871578
 21
22.6701467772
  0
LINE
  5
227
100
AcDbEntity
  8
0
100
AcDbLine
 62
7
  6
CONTINUOUS
 10
86.3935941439
 20
23.3201467772
 11
85.8435941439
 21
23.3201467772
  0
LINE
  5
228
100
AcDbEntity
  8
DEFAULT_2
100
AcDbLine
 62
8
  6
HIDDEN
 10
85.8435941439
 20
23.3201467772
 11
85.5935941439
 21
23.3201467772
  0
LINE
  5
229
100
AcDbEntity
  8
0
100
AcDbLine
 62
7
  6
CONTINUOUS
 10
90.0505027062
 20
23.4458818595
 11
93.2366855816
 21
23.4458818595
  0
LINE
  5
22A
100
AcDbEntity
  8
A_ACHSEN
100
AcDbLine
 62
7
  6
CONTINUOUS
 10
91.98077868
 20
24.1701582467
 11
91.30640868
 21
24.1701582467
  0
LINE
  5
22B
100
AcDbEntity
  8
A_ACHSEN
100
AcDbLine
 62
7
  6
CENTER
 10
89.95766868
 20
24.1701582467
 11
86.44359368
 21
24.1701582467
  0
LINE
  5
22C
100
AcDbEntity
  8
A_ACHSEN
100
AcDbLine
 62
7
  6
CENTER
 10
93.32951868
 20
24.1701582467
 11
96.84359368
 21
24.1701582467
  0
LINE
  5
22D
100
AcDbEntity
  8
0
100
AcDbLine
 62
7
  6
CONTINUOUS
 10
6.3435941439
 20
25.0701467772
 11
85.3435941439
 21
25.0701467772
  0
LINE
  5
22E
100
AcDbEntity
  8
A_FLAECHEN
100
AcDbLine
 62
8
  6
HIDDEN
 10
83.6435941439
 20
7.6031594791
 11
85.1435941439
 21
6.7371340754
  0
LWPOLYLINE
  5
22F
100
AcDbEntity
  8
A_RUNDUNGEN
100
AcDbPolyline
 62
7
  6
CONTINUOUS
 90
3
 70
0
 10
112.0569459032
 20
33.7682463733
 10
112.1003566719
 20
33.7718734494
 10
112.1493648354
 20
33.7854058516
  0
LINE
  5
230
100
AcDbEntity
  8
A_RUNDUNGEN
100
AcDbLine
 62
7
  6
CONTINUOUS
 10
98.2085660046
 20
27.3051556102
 11
94.6435941439
 21
27.2321892902
  0
LINE
  5
231
100
AcDbEntity
  8
A_RUNDUNGEN
100
AcDbLine
 62
8
  6
HIDDEN
 10
94.6435941439
 20
27.2321892902
 11
91.5822038199
 21
27.1695300618
  0
LINE
  5
232
100
AcDbEntity
  8
DEFAULT_2
100
AcDbLine
 62
8
  6
HIDDEN
 10
76.6435941439
 20
27.6701467772
 11
83.6435941439
 21
27.6701467772
  0
LINE
  5
233
100
AcDbEntity
  8
A_RUNDUNGEN
100
AcDbLine
 62
7
  6
CONTINUOUS
 10
76.6435941439
 20
27.6701467772
 11
85.6435941439
 21
27.6701467772
  0
LINE
  5
234
100
AcDbEntity
  8
A_RUNDUNGEN
100
AcDbLine
 62
7
  6
CONTINUOUS
 10
76.6435941439
 20
29.6701467772
 11
97.6435941439
 21
29.6701467772
  0
LINE
  5
235
100
AcDbEntity
  8
A_ACHSEN
100
AcDbLine
 62
8
  6
HIDDEN
 10
81.1435941439
 20
3.6701467772
 11
80.6435941439
 21
4.1701467772
  0
LINE
  5
236
100
AcDbEntity
  8
A_RUNDUNGEN
100
AcDbLine
 62
7
  6
CONTINUOUS
 10
78.6435941439
 20
31.6701467772
 11
95.6435941439
 21
31.6701467772
  0
LINE
  5
237
100
AcDbEntity
  8
A_RUNDUNGEN
100
AcDbLine
 62
7
  6
CONTINUOUS
 10
112.0569601427
 20
33.7682463675
 11
98.5931974545
 21
33.7682463675
  0
LINE
  5
238
100
AcDbEntity
  8
0
100
AcDbLine
 62
7
  6
CONTINUOUS
 10
72.3090456738
 20
34.7682463675
 11
112.3090456738
 21
34.7682463675
  0
LINE
  5
239
100
AcDbEntity
  8
A_RUNDUNGEN
100
AcDbLine
 62
8
  6
HIDDEN
 10
76.453952986
 20
66.1133468457
 11
76.6931007856
 21
66.3545907629
  0
LINE
  5
23A
100
AcDbEntity
  8
A_RUNDUNGEN
100
AcDbLine
 62
8
  6
HIDDEN
 10
91.1816144053
 20
40.9356385466
 11
99.6497352516
 21
41.8514649519
  0
LINE
  5
23B
100
AcDbEntity
  8
A_RUNDUNGEN
100
AcDbLine
 62
8
  6
HIDDEN
 10
84.9931727932
 20
40.4212462147
 11
99.9314002407
 21
41.0897885285
  0
LINE
  5
23C
100
AcDbEntity
  8
DEFAULT_2
100
AcDbLine
 62
8
  6
HIDDEN
 10
112.3090456738
 20
38.7682463675
 11
75.3090456738
 21
38.7682463675
  0
LINE
  5
23D
100
AcDbEntity
  8
DEFAULT_2
100
AcDbLine
 62
8
  6
HIDDEN
 10
110.8090456738
 20
38.9682463675
 11
112.3090456738
 21
38.9682463675
  0
LINE
  5
23E
100
AcDbEntity
  8
A_RUNDUNGEN
100
AcDbLine
 62
8
  6
HIDDEN
 10
110.8090456738
 20
38.8682463675
 11
76.9736843217
 21
39.1635230927
  0
LINE
  5
23F
100
AcDbEntity
  8
A_ACHSEN
100
AcDbLine
 62
8
  6
HIDDEN
 10
86.6435941439
 20
10.6701467772
 11
85.6435941439
 21
11.6701467772
  0
LINE
  5
240
100
AcDbEntity
  8
A_RUNDUNGEN
100
AcDbLine
 62
7
  6
CONTINUOUS
 10
80.5750091501
 20
12.2965703409
 11
78.9634790464
 21
14.5980738463
  0
LINE
  5
241
100
AcDbEntity
  8
A_RUNDUNGEN
100
AcDbLine
 62
7
  6
CONTINUOUS
 10
80.2452042226
 20
12.299082289
 11
77.552289796
 21
16.1701467772
  0
LINE
  5
242
100
AcDbEntity
  8
A_RUNDUNGEN
100
AcDbLine
 62
8
  6
HIDDEN
 10
76.7256322493
 20
57.7625579023
 11
76.4493757737
 21
57.4764859473
  0
LINE
  5
243
100
AcDbEntity
  8
A_RUNDUNGEN
100
AcDbLine
 62
8
  6
HIDDEN
 10
105.1003194706
 20
42.7093665186
 11
102.9046825722
 21
42.671041534
  0
LINE
  5
244
100
AcDbEntity
  8
A_ACHSEN
100
AcDbLine
 62
7
  6
CONTINUOUS
 10
85.1962306738
 20
43.4182463675
 11
84.5218606738
 21
43.4182463675
  0
LINE
  5
245
100
AcDbEntity
  8
A_ACHSEN
100
AcDbLine
 62
7
  6
CENTER
 10
84.4234603199
 20
43.4182463675
 11
81.8589456738
 21
43.4182463675
  0
LINE
  5
246
100
AcDbEntity
  8
A_ACHSEN
100
AcDbLine
 62
7
  6
CENTER
 10
85.2835634463
 20
43.4182463675
 11
87.8591456738
 21
43.4182463675
  0
LINE
  5
247
100
AcDbEntity
  8
A_ACHSEN
100
AcDbLine
 62
8
  6
HIDDEN
 10
102.3090456738
 20
43.7682463675
 11
92.3090456738
 21
43.7682463675
  0
LINE
  5
248
100
AcDbEntity
  8
A_ACHSEN
100
AcDbLine
 62
7
  6
CONTINUOUS
 10
90.6780130464
 20
43.9182463675
 11
90.5218606738
 21
43.9182463675
  0
LINE
  5
249
100
AcDbEntity
  8
A_ACHSEN
100
AcDbLine
 62
7
  6
CENTER
 10
90.1031279361
 20
43.9182463675
 11
86.6538172744
 21
43.9182463675
  0
LINE
  5
24A
100
AcDbEntity
  8
A_ACHSEN
100
AcDbLine
 62
7
  6
CENTER
 10
90.6780130464
 20
43.9182463675
 11
95.0642740733
 21
43.9182463675
  0
LINE
  5
24B
100
AcDbEntity
  8
A_RUNDUNGEN
100
AcDbLine
 62
8
  6
HIDDEN
 10
91.2090456738
 20
39.944941869
 11
77.7064276919
 21
40.0156420575
  0
LINE
  5
24C
100
AcDbEntity
  8
A_RUNDUNGEN
100
AcDbLine
 62
8
  6
HIDDEN
 10
110.8090456738
 20
40.7182463675
 11
105.8546825722
 21
40.8047250971
  0
LINE
  5
24D
100
AcDbEntity
  8
A_RUNDUNGEN
100
AcDbLine
 62
7
  6
CONTINUOUS
 10
98.1360338638
 20
33.8396101467
 11
97.2828517421
 21
34.1126284257
  0
LINE
  5
24E
100
AcDbEntity
  8
0
100
AcDbLine
 62
7
  6
CONTINUOUS
 10
85.8435941439
 20
24.5701467772
 11
85.3435941439
 21
25.0701467772
  0
LINE
  5
24F
100
AcDbEntity
  8
A_RUNDUNGEN
100
AcDbLine
 62
7
  6
CONTINUOUS
 10
85.8929205961
 20
14.9422197081
 11
86.4627461882
 21
14.1284244247
  0
LINE
  5
250
100
AcDbEntity
  8
A_RUNDUNGEN
100
AcDbLine
 62
7
  6
CONTINUOUS
 10
85.4708726814
 20
15.8559338796
 11
86.6077751842
 21
14.2216365317
  0
LINE
  5
251
100
AcDbEntity
  8
A_RUNDUNGEN
100
AcDbLine
 62
8
  6
HIDDEN
 10
76.4554922832
 20
50.1396929769
 11
76.6625990644
 21
50.3467997581
  0
LINE
  5
252
100
AcDbEntity
  8
A_RUNDUNGEN
100
AcDbLine
 62
8
  6
HIDDEN
 10
103.9526235452
 20
49.9532919325
 11
102.8654678025
 21
49.8581781295
  0
LINE
  5
253
100
AcDbEntity
  8
A_RUNDUNGEN
100
AcDbLine
 62
8
  6
HIDDEN
 10
100.5871905332
 20
47.4620624334
 11
90.693016644
 21
46.9136485711
  0
LINE
  5
254
100
AcDbEntity
  8
A_RUNDUNGEN
100
AcDbLine
 62
8
  6
HIDDEN
 10
110.8090456738
 20
49.9182463675
 11
105.8546825722
 21
49.8317676379
  0
LINE
  5
255
100
AcDbEntity
  8
A_RUNDUNGEN
100
AcDbLine
 62
8
  6
HIDDEN
 10
106.8176970423
 20
44.8682463675
 11
104.4003943054
 21
44.8682463675
  0
LINE
  5
256
100
AcDbEntity
  8
DEFAULT_2
100
AcDbLine
 62
8
  6
HIDDEN
 10
103.2090456738
 20
46.1182463675
 11
91.4857897013
 21
46.1182463675
  0
LINE
  5
257
100
AcDbEntity
  8
0
100
AcDbLine
 62
7
  6
CONTINUOUS
 10
115.8090456738
 20
46.2682463675
 11
121.8090456738
 21
46.2682463675
  0
LINE
  5
258
100
AcDbEntity
  8
A_ACHSEN
100
AcDbLine
 62
8
  6
HIDDEN
 10
102.3090456738
 20
46.7682463675
 11
92.3090456738
 21
46.7682463675
  0
LINE
  5
259
100
AcDbEntity
  8
0
100
AcDbLine
 62
7
  6
CONTINUOUS
 10
116.2628139004
 20
47.2682463675
 11
121.3552774472
 21
47.2682463675
  0
LINE
  5
25A
100
AcDbEntity
  8
A_RUNDUNGEN
100
AcDbLine
 62
8
  6
HIDDEN
 10
110.3116636557
 20
45.9682243796
 11
91.7064276919
 21
46.0656420575
  0
LINE
  5
25B
100
AcDbEntity
  8
DEFAULT_2
100
AcDbLine
 62
8
  6
HIDDEN
 10
91.7064276919
 20
46.0656420575
 11
103.2090456738
 21
46.0054139402
  0
LINE
  5
25C
100
AcDbEntity
  8
A_RUNDUNGEN
100
AcDbLine
 62
8
  6
HIDDEN
 10
105.1003194706
 20
47.9271262164
 11
102.9046825722
 21
47.965451201
  0
LINE
  5
25D
100
AcDbEntity
  8
A_RUNDUNGEN
100
AcDbLine
 62
8
  6
HIDDEN
 10
76.9573374941
 20
47.7956075183
 11
86.5852202964
 21
47.4593944423
  0
LINE
  5
25E
100
AcDbEntity
  8
A_RUNDUNGEN
100
AcDbLine
 62
8
  6
HIDDEN
 10
101.2971769379
 20
45.4197328317
 11
85.0419564534
 21
46.4126651169
  0
LINE
  5
25F
100
AcDbEntity
  8
A_RUNDUNGEN
100
AcDbLine
 62
8
  6
HIDDEN
 10
76.453952986
 20
39.5231458893
 11
76.6931007856
 21
39.2819019721
  0
LINE
  5
260
100
AcDbEntity
  8
0
100
AcDbLine
 62
7
  6
CONTINUOUS
 10
72.3090456738
 20
84.7682463675
 11
72.3090456738
 21
34.7682463675
  0
LINE
  5
261
100
AcDbEntity
  8
DEFAULT_2
100
AcDbLine
 62
8
  6
HIDDEN
 10
75.3090456738
 20
66.7682463675
 11
75.3090456738
 21
38.7682463675
  0
LINE
  5
262
100
AcDbEntity
  8
A_FASEN
100
AcDbLine
 62
8
  6
HIDDEN
 10
91.2090456619
 20
55.6432463555
 11
90.709045664
 21
55.1432463577
  0
LINE
  5
263
100
AcDbEntity
  8
DEFAULT_2
100
AcDbLine
 62
8
  6
HIDDEN
 10
90.8840456738
 20
50.3182463675
 11
76.3090456738
 21
50.3182463675
  0
LINE
  5
264
100
AcDbEntity
  8
A_RUNDUNGEN
100
AcDbLine
 62
8
  6
HIDDEN
 10
90.7090456738
 20
50.4932463675
 11
77.016152455
 21
50.4932463675
  0
LINE
  5
265
100
AcDbEntity
  8
DEFAULT_2
100
AcDbLine
 62
8
  6
HIDDEN
 10
109.4590456738
 20
50.8182463675
 11
104.4090456738
 21
50.8182463675
  0
LINE
  5
266
100
AcDbEntity
  8
A_RUNDUNGEN
100
AcDbLine
 62
8
  6
HIDDEN
 10
109.1019388926
 20
50.9682463675
 11
104.9090456738
 21
50.9682463675
  0
LINE
  5
267
100
AcDbEntity
  8
0
100
AcDbLine
 62
7
  6
CONTINUOUS
 10
124.3090456738
 20
52.2682463675
 11
113.3090456738
 21
52.2682463675
  0
LINE
  5
268
100
AcDbEntity
  8
0
100
AcDbLine
 62
7
  6
CONTINUOUS
 10
125.3090456738
 20
53.2682463675
 11
112.3090456738
 21
53.2682463675
  0
LINE
  5
269
100
AcDbEntity
  8
DEFAULT_2
100
AcDbLine
 62
8
  6
HIDDEN
 10
76.3090456738
 20
55.3182463675
 11
76.3090456738
 21
50.3182463675
  0
LINE
  5
26A
100
AcDbEntity
  8
A_RUNDUNGEN
100
AcDbLine
 62
8
  6
HIDDEN
 10
76.3090456738
 20
65.7613394835
 11
76.3090456738
 21
39.8751532515
  0
LINE
  5
26B
100
AcDbEntity
  8
A_RUNDUNGEN
100
AcDbLine
 62
7
  6
CONTINUOUS
 10
76.6435941439
 20
29.6701467772
 11
76.6435941439
 21
27.6701467772
  0
LINE
  5
26C
100
AcDbEntity
  8
A_RUNDUNGEN
100
AcDbLine
 62
7
  6
CONTINUOUS
 10
76.6435941439
 20
16.1701467772
 11
76.6435941439
 21
7.6701467772
  0
LINE
  5
26D
100
AcDbEntity
  8
0
100
AcDbLine
 62
7
  6
CONTINUOUS
 10
76.6435941439
 20
25.0701467772
 11
76.6435941439
 21
27.6701467772
  0
LINE
  5
26E
100
AcDbEntity
  8
A_RUNDUNGEN
100
AcDbLine
 62
8
  6
HIDDEN
 10
77.2090456738
 20
65.0708575313
 11
77.2090456738
 21
40.5156352037
  0
LINE
  5
26F
100
AcDbEntity
  8
0
100
AcDbLine
 62
7
  6
CONTINUOUS
 10
78.1435941439
 20
15.8701467772
 11
78.1435941439
 21
15.3201467772
  0
LINE
  5
270
100
AcDbEntity
  8
A_ACHSEN
100
AcDbLine
 62
8
  6
HIDDEN
 10
80.6435941439
 20
4.1701467772
 11
80.6435941439
 21
10.6701467772
  0
LINE
  5
271
100
AcDbEntity
  8
A_RUNDUNGEN
100
AcDbLine
 62
8
  6
HIDDEN
 10
102.8365729793
 20
66.6262152373
 11
102.4814993299
 21
66.2680293866
  0
LINE
  5
272
100
AcDbEntity
  8
A_RUNDUNGEN
100
AcDbLine
 62
8
  6
HIDDEN
 10
76.9573374941
 20
57.8408852167
 11
86.5852202964
 21
58.1770982928
  0
LINE
  5
273
100
AcDbEntity
  8
A_RUNDUNGEN
100
AcDbLine
 62
8
  6
HIDDEN
 10
105.1003194706
 20
57.7093665186
 11
102.9046825722
 21
57.671041534
  0
LINE
  5
274
100
AcDbEntity
  8
A_RUNDUNGEN
100
AcDbLine
 62
8
  6
HIDDEN
 10
109.1019388926
 20
54.6682463675
 11
104.9090456738
 21
54.6682463675
  0
LINE
  5
275
100
AcDbEntity
  8
DEFAULT_2
100
AcDbLine
 62
8
  6
HIDDEN
 10
109.4590456738
 20
54.8182463675
 11
104.4090456738
 21
54.8182463675
  0
LINE
  5
276
100
AcDbEntity
  8
A_RUNDUNGEN
100
AcDbLine
 62
8
  6
HIDDEN
 10
90.7090456738
 20
55.1432463675
 11
77.016152455
 21
55.1432463675
  0
LINE
  5
277
100
AcDbEntity
  8
DEFAULT_2
100
AcDbLine
 62
8
  6
HIDDEN
 10
90.8840456738
 20
55.3182463675
 11
76.3090456738
 21
55.3182463675
  0
LINE
  5
278
100
AcDbEntity
  8
A_ACHSEN
100
AcDbLine
 62
8
  6
HIDDEN
 10
102.3090456738
 20
58.7682463675
 11
92.3090456738
 21
58.7682463675
  0
LINE
  5
279
100
AcDbEntity
  8
A_RUNDUNGEN
100
AcDbLine
 62
8
  6
HIDDEN
 10
110.8090456738
 20
55.7182463675
 11
105.8546825722
 21
55.8047250971
  0
LINE
  5
27A
100
AcDbEntity
  8
A_RUNDUNGEN
100
AcDbLine
 62
8
  6
HIDDEN
 10
103.9526235452
 20
55.6832008025
 11
102.8654678025
 21
55.7783146055
  0
LINE
  5
27B
100
AcDbEntity
  8
A_RUNDUNGEN
100
AcDbLine
 62
8
  6
HIDDEN
 10
76.7256322493
 20
47.8739348327
 11
76.4493757737
 21
48.1600067877
  0
LINE
  5
27C
100
AcDbEntity
  8
A_ACHSEN
100
AcDbLine
 62
8
  6
HIDDEN
 10
81.1435941439
 20
3.6701467772
 11
81.1435941439
 21
11.8701467772
  0
LINE
  5
27D
100
AcDbEntity
  8
DEFAULT_2
100
AcDbLine
 62
8
  6
HIDDEN
 10
81.3435941439
 20
3.6701467772
 11
81.3435941439
 21
11.3701467772
  0
LINE
  5
27E
100
AcDbEntity
  8
DEFAULT_2
100
AcDbLine
 62
8
  6
HIDDEN
 10
82.1435941439
 20
3.6701467772
 11
82.1435941439
 21
6.736799309
  0
LINE
  5
27F
100
AcDbEntity
  8
DEFAULT_2
100
AcDbLine
 62
8
  6
HIDDEN
 10
83.6435941439
 20
3.6701467772
 11
83.6435941439
 21
6.6031594791
  0
LINE
  5
280
100
AcDbEntity
  8
A_ACHSEN
100
AcDbLine
 62
7
  6
CENTER
 10
83.6435941439
 20
0.6701467772
 11
83.6435941439
 21
14.6701467772
  0
LINE
  5
281
100
AcDbEntity
  8
0
100
AcDbLine
 62
7
  6
CONTINUOUS
 10
83.6435941439
 20
25.0701467772
 11
83.6435941439
 21
27.6701467772
  0
LINE
  5
282
100
AcDbEntity
  8
A_ACHSEN
100
AcDbLine
 62
7
  6
CENTER
 10
84.8590456738
 20
43.2864168545
 11
84.8590456738
 21
40.4181463675
  0
LINE
  5
283
100
AcDbEntity
  8
A_ACHSEN
100
AcDbLine
 62
7
  6
CONTINUOUS
 10
84.8590456738
 20
43.2864168545
 11
84.8590456738
 21
43.7554313675
  0
LINE
  5
284
100
AcDbEntity
  8
A_ACHSEN
100
AcDbLine
 62
7
  6
CENTER
 10
84.8590456738
 20
43.809957888
 11
84.8590456738
 21
46.4183463675
  0
LINE
  5
285
100
AcDbEntity
  8
DEFAULT_2
100
AcDbLine
 62
8
  6
HIDDEN
 10
85.1435941439
 20
3.6701467772
 11
85.1435941439
 21
6.736799309
  0
LINE
  5
286
100
AcDbEntity
  8
A_RUNDUNGEN
100
AcDbLine
 62
8
  6
HIDDEN
 10
87.3090456636
 20
62.2578524459
 11
87.3196002414
 21
62.3600931889
  0
LINE
  5
287
100
AcDbEntity
  8
DEFAULT_2
100
AcDbLine
 62
8
  6
HIDDEN
 10
91.7064276919
 20
59.5708506775
 11
103.2090456738
 21
59.6310787948
  0
LINE
  5
288
100
AcDbEntity
  8
A_RUNDUNGEN
100
AcDbLine
 62
8
  6
HIDDEN
 10
91.7064276919
 20
59.5708506775
 11
110.3116636557
 21
59.6682683554
  0
LINE
  5
289
100
AcDbEntity
  8
DEFAULT_2
100
AcDbLine
 62
8
  6
HIDDEN
 10
91.4857897013
 20
59.5182463675
 11
103.2090456738
 21
59.5182463675
  0
LINE
  5
28A
100
AcDbEntity
  8
DEFAULT_2
100
AcDbLine
 62
8
  6
HIDDEN
 10
112.3090456738
 20
60.9682463675
 11
109.2090456738
 21
60.9682463675
  0
LINE
  5
28B
100
AcDbEntity
  8
DEFAULT_2
100
AcDbLine
 62
8
  6
HIDDEN
 10
112.3090456738
 20
61.1182463675
 11
109.2090456738
 21
61.1182463675
  0
LINE
  5
28C
100
AcDbEntity
  8
A_ACHSEN
100
AcDbLine
 62
8
  6
HIDDEN
 10
102.3090456738
 20
61.7682463675
 11
92.3090456738
 21
61.7682463675
  0
LINE
  5
28D
100
AcDbEntity
  8
A_RUNDUNGEN
100
AcDbLine
 62
8
  6
HIDDEN
 10
105.1003194706
 20
62.9271262164
 11
102.9046825722
 21
62.965451201
  0
LINE
  5
28E
100
AcDbEntity
  8
A_RUNDUNGEN
100
AcDbLine
 62
8
  6
HIDDEN
 10
76.4554922832
 20
55.4967997581
 11
76.6625990644
 21
55.2896929769
  0
LINE
  5
28F
100
AcDbEntity
  8
A_RUNDUNGEN
100
AcDbLine
 62
8
  6
HIDDEN
 10
87.3090456636
 20
43.3786402888
 11
87.3196002416
 21
43.2763995449
  0
LINE
  5
290
100
AcDbEntity
  8
A_RUNDUNGEN
100
AcDbLine
 62
8
  6
HIDDEN
 10
87.3090456738
 20
43.3788273707
 11
87.3179375992
 21
43.2848545117
  0
LINE
  5
291
100
AcDbEntity
  8
DEFAULT_2
100
AcDbLine
 62
8
  6
HIDDEN
 10
85.5935941439
 20
23.3201467772
 11
85.5935941439
 21
17.3201467772
  0
LINE
  5
292
100
AcDbEntity
  8
0
100
AcDbLine
 62
7
  6
CONTINUOUS
 10
85.5935941439
 20
17.3201467772
 11
85.5935941439
 21
16.1686424716
  0
LINE
  5
293
100
AcDbEntity
  8
DEFAULT_2
100
AcDbLine
 62
8
  6
HIDDEN
 10
85.5935941439
 20
16.1686424716
 11
85.5935941439
 21
15.8701467772
  0
LINE
  5
294
100
AcDbEntity
  8
0
100
AcDbLine
 62
7
  6
CONTINUOUS
 10
85.5935941439
 20
15.6795217772
 11
85.5935941439
 21
15.0701467772
  0
LINE
  5
295
100
AcDbEntity
  8
0
100
AcDbLine
 62
7
  6
CONTINUOUS
 10
85.8435941439
 20
17.5701467772
 11
85.8435941439
 21
24.5701467772
  0
LINE
  5
296
100
AcDbEntity
  8
DEFAULT_2
100
AcDbLine
 62
8
  6
HIDDEN
 10
85.9435941439
 20
3.6701467772
 11
85.9435941439
 21
11.3701467772
  0
LINE
  5
297
100
AcDbEntity
  8
A_ACHSEN
100
AcDbLine
 62
8
  6
HIDDEN
 10
86.1435941439
 20
3.6701467772
 11
86.1435941439
 21
11.8701467772
  0
LINE
  5
298
100
AcDbEntity
  8
DEFAULT_2
100
AcDbLine
 62
8
  6
HIDDEN
 10
86.3935941439
 20
15.8701467772
 11
86.3935941439
 21
16.5191197081
  0
LINE
  5
299
100
AcDbEntity
  8
0
100
AcDbLine
 62
7
  6
CONTINUOUS
 10
86.3935941439
 20
16.5191197081
 11
86.3935941439
 21
23.3201467772
  0
LINE
  5
29A
100
AcDbEntity
  8
A_RUNDUNGEN
100
AcDbLine
 62
7
  6
CONTINUOUS
 10
86.6435941439
 20
14.1074236341
 11
86.6435941439
 21
11.8701467772
  0
LINE
  5
29B
100
AcDbEntity
  8
A_ACHSEN
100
AcDbLine
 62
8
  6
HIDDEN
 10
86.6435941439
 20
4.1701467772
 11
86.6435941439
 21
10.6701467772
  0
LINE
  5
29C
100
AcDbEntity
  8
A_RUNDUNGEN
100
AcDbLine
 62
7
  6
CONTINUOUS
 10
86.6435941439
 20
17.1701467772
 11
86.6435941439
 21
26.6701467772
  0
LINE
  5
29D
100
AcDbEntity
  8
A_RUNDUNGEN
100
AcDbLine
 62
8
  6
HIDDEN
 10
87.3090456738
 20
62.2576522283
 11
87.3090456738
 21
56.6757962019
  0
LINE
  5
29E
100
AcDbEntity
  8
A_RUNDUNGEN
100
AcDbLine
 62
8
  6
HIDDEN
 10
87.3090456738
 20
48.9605624174
 11
87.3090456738
 21
43.3789998613
  0
LINE
  5
29F
100
AcDbEntity
  8
A_RUNDUNGEN
100
AcDbLine
 62
8
  6
HIDDEN
 10
87.3090456738
 20
62.2576653645
 11
87.3179375996
 21
62.3516382254
  0
LINE
  5
2A0
100
AcDbEntity
  8
A_RUNDUNGEN
100
AcDbLine
 62
8
  6
HIDDEN
 10
110.8090456738
 20
64.9182463675
 11
105.8546825722
 21
64.8317676379
  0
LINE
  5
2A1
100
AcDbEntity
  8
A_RUNDUNGEN
100
AcDbLine
 62
8
  6
HIDDEN
 10
110.8090456738
 20
66.7682463675
 11
76.9736843217
 21
66.4729696423
  0
LINE
  5
2A2
100
AcDbEntity
  8
A_RUNDUNGEN
100
AcDbLine
 62
8
  6
HIDDEN
 10
110.3116636557
 20
65.7415728539
 11
77.7064276919
 21
65.5708506775
  0
LINE
  5
2A3
100
AcDbEntity
  8
DEFAULT_2
100
AcDbLine
 62
8
  6
HIDDEN
 10
112.3090456738
 20
64.8182463675
 11
109.2090456738
 21
64.8182463675
  0
LINE
  5
2A4
100
AcDbEntity
  8
DEFAULT_2
100
AcDbLine
 62
8
  6
HIDDEN
 10
112.3090456738
 20
64.9682463675
 11
109.2090456738
 21
64.9682463675
  0
LINE
  5
2A5
100
AcDbEntity
  8
A_ACHSEN
100
AcDbLine
 62
8
  6
HIDDEN
 10
110.3090456738
 20
65.6182463675
 11
109.2090456738
 21
65.6182463675
  0
LINE
  5
2A6
100
AcDbEntity
  8
DEFAULT_2
100
AcDbLine
 62
8
  6
HIDDEN
 10
125.3090456738
 20
66.7682463675
 11
75.3090456738
 21
66.7682463675
  0
LINE
  5
2A7
100
AcDbEntity
  8
A_FASEN
100
AcDbLine
 62
8
  6
HIDDEN
 10
91.2090456619
 20
49.9932463795
 11
90.709045664
 21
50.4932463773
  0
LINE
  5
2A8
100
AcDbEntity
  8
A_RUNDUNGEN
100
AcDbLine
 62
8
  6
HIDDEN
 10
102.8365729793
 20
39.0102774977
 11
102.4814993299
 21
39.3684633485
  0
LINE
  5
2A9
100
AcDbEntity
  8
A_FASEN
100
AcDbLine
 62
8
  6
HIDDEN
 10
90.7090456738
 20
55.1432463675
 11
90.7090456738
 21
50.4932463675
  0
LINE
  5
2AA
100
AcDbEntity
  8
A_ACHSEN
100
AcDbLine
 62
7
  6
CENTER
 10
90.8590456738
 20
43.1882390693
 11
90.8590456738
 21
39.713017968
  0
LINE
  5
2AB
100
AcDbEntity
  8
A_ACHSEN
100
AcDbLine
 62
7
  6
CENTER
 10
90.8590456738
 20
43.4535706587
 11
90.8590456738
 21
48.123474767
  0
LINE
  5
2AC
100
AcDbEntity
  8
DEFAULT_2
100
AcDbLine
 62
8
  6
HIDDEN
 10
90.8840456738
 20
55.3182463675
 11
90.8840456738
 21
50.3182463675
  0
LINE
  5
2AD
100
AcDbEntity
  8
A_RUNDUNGEN
100
AcDbLine
 62
8
  6
HIDDEN
 10
91.2090456738
 20
59.0708575313
 11
91.2090456738
 21
46.5656352037
  0
LINE
  5
2AE
100
AcDbEntity
  8
A_FASEN
100
AcDbLine
 62
8
  6
HIDDEN
 10
91.2090456738
 20
55.6432463675
 11
91.2090456738
 21
49.9932463675
  0
LINE
  5
2AF
100
AcDbEntity
  8
A_RUNDUNGEN
100
AcDbLine
 62
8
  6
HIDDEN
 10
91.2090456738
 20
39.944941869
 11
91.2090456738
 21
39.0392929762
  0
LINE
  5
2B0
100
AcDbEntity
  8
A_ACHSEN
100
AcDbLine
 62
7
  6
CENTER
 10
91.6435918296
 20
14.7368193843
 11
91.6435918296
 21
23.6034906778
  0
LINE
  5
2B1
100
AcDbEntity
  8
A_ACHSEN
100
AcDbLine
 62
7
  6
CONTINUOUS
 10
91.64359368
 20
24.5073432467
 11
91.64359368
 21
23.8329732467
  0
LINE
  5
2B2
100
AcDbEntity
  8
A_ACHSEN
100
AcDbLine
 62
7
  6
CENTER
 10
91.64359368
 20
25.8560832467
 11
91.64359368
 21
29.3701582467
  0
LINE
  5
2B3
100
AcDbEntity
  8
A_ACHSEN
100
AcDbLine
 62
8
  6
HIDDEN
 10
92.3090456738
 20
61.7682463675
 11
92.3090456738
 21
58.7682463675
  0
LINE
  5
2B4
100
AcDbEntity
  8
A_ACHSEN
100
AcDbLine
 62
8
  6
HIDDEN
 10
92.3090456738
 20
46.7682463675
 11
92.3090456738
 21
43.7682463675
  0
LINE
  5
2B5
100
AcDbEntity
  8
A_RUNDUNGEN
100
AcDbLine
 62
7
  6
CONTINUOUS
 10
94.6435941439
 20
3.6701467772
 11
94.6435941439
 21
29.6701467772
  0
LINE
  5
2B6
100
AcDbEntity
  8
A_RUNDUNGEN
100
AcDbLine
 62
8
  6
HIDDEN
 10
92.4791862804
 20
21.2888764129
 11
94.6435941439
 21
21.9165703697
  0
LINE
  5
2B7
100
AcDbEntity
  8
A_RUNDUNGEN
100
AcDbLine
 62
7
  6
CONTINUOUS
 10
94.6435941439
 20
21.9165703697
 11
101.3502437604
 21
23.8615473335
  0
LINE
  5
2B8
100
AcDbEntity
  8
A_RUNDUNGEN
100
AcDbLine
 62
7
  6
CONTINUOUS
 10
97.1090456738
 20
34.3507344625
 11
97.1090456738
 21
34.5182463675
  0
LINE
  5
2B9
100
AcDbEntity
  8
DEFAULT_2
100
AcDbLine
 62
8
  6
HIDDEN
 10
97.8090456738
 20
38.7682463675
 11
97.8090456738
 21
34.7682463675
  0
LINE
  5
2BA
100
AcDbEntity
  8
0
100
AcDbLine
 62
7
  6
CONTINUOUS
 10
85.8435941439
 20
17.5701467772
 11
85.3435941439
 21
17.0701467772
  0
LINE
  5
2BB
100
AcDbEntity
  8
A_ACHSEN
100
AcDbLine
 62
8
  6
HIDDEN
 10
80.6435941439
 20
10.6701467772
 11
81.6435941439
 21
11.6701467772
  0
LINE
  5
2BC
100
AcDbEntity
  8
A_RUNDUNGEN
100
AcDbLine
 62
8
  6
HIDDEN
 10
99.6118005883
 20
27.0235825511
 11
93.165498016
 21
23.4458818595
  0
LINE
  5
2BD
100
AcDbEntity
  8
A_RUNDUNGEN
100
AcDbLine
 62
7
  6
CONTINUOUS
 10
93.165498016
 20
23.4458818595
 11
91.3650344378
 21
22.4466238015
  0
LINE
  5
2BE
100
AcDbEntity
  8
A_RUNDUNGEN
100
AcDbLine
 62
8
  6
HIDDEN
 10
91.3650344378
 20
22.4466238015
 11
90.1877758836
 21
21.7932447991
  0
LINE
  5
2BF
100
AcDbEntity
  8
0
100
AcDbLine
 62
7
  6
CONTINUOUS
 10
91.716974428
 20
22.6701467772
 11
92.9275765371
 21
23.3138353366
  0
LWPOLYLINE
  5
2C0
100
AcDbEntity
  8
A_RUNDUNGEN
100
AcDbPolyline
 62
7
  6
CONTINUOUS
 90
6
 70
0
 10
112.1493648354
 20
33.7854058516
 10
112.1980135685
 20
33.8107491387
 10
112.2423092361
 20
33.848554222
 10
112.278283881
 20
33.8984766243
 10
112.301842124
 20
33.9590614233
 10
112.3090456737
 20
34.0186614814
  0
LINE
  5
2C1
100
AcDbEntity
  8
A_RUNDUNGEN
100
AcDbLine
 62
8
  6
HIDDEN
 10
102.0203571125
 20
39.1347374497
 11
102.1356264687
 21
33.7682463675
  0
LINE
  5
2C2
100
AcDbEntity
  8
A_RUNDUNGEN
100
AcDbLine
 62
7
  6
CONTINUOUS
 10
102.1356264687
 20
33.7682463675
 11
102.1842876587
 21
31.5027713889
  0
LINE
  5
2C3
100
AcDbEntity
  8
A_RUNDUNGEN
100
AcDbLine
 62
8
  6
HIDDEN
 10
102.9716757981
 20
38.930246991
 11
103.0773294201
 21
33.7682463675
  0
LINE
  5
2C4
100
AcDbEntity
  8
A_RUNDUNGEN
100
AcDbLine
 62
7
  6
CONTINUOUS
 10
103.0773294201
 20
33.7682463675
 11
103.1052025963
 21
32.4064250688
  0
LINE
  5
2C5
100
AcDbEntity
  8
DEFAULT_2
100
AcDbLine
 62
8
  6
HIDDEN
 10
102.3090456738
 20
66.7682463675
 11
102.3090456738
 21
38.7682463675
  0
LINE
  5
2C6
100
AcDbEntity
  8
A_ACHSEN
100
AcDbLine
 62
8
  6
HIDDEN
 10
102.3090456738
 20
43.7682463675
 11
102.3090456738
 21
46.7682463675
  0
LINE
  5
2C7
100
AcDbEntity
  8
A_ACHSEN
100
AcDbLine
 62
8
  6
HIDDEN
 10
102.3090456738
 20
58.7682463675
 11
102.3090456738
 21
61.7682463675
  0
LINE
  5
2C8
100
AcDbEntity
  8
A_RUNDUNGEN
100
AcDbLine
 62
8
  6
HIDDEN
 10
102.4090456738
 20
66.0920257054
 11
102.4090456738
 21
39.5444670296
  0
LINE
  5
2C9
100
AcDbEntity
  8
A_RUNDUNGEN
100
AcDbLine
 62
8
  6
HIDDEN
 10
102.6590456738
 20
63.6682463675
 11
102.6590456738
 21
56.9682463675
  0
LINE
  5
2CA
100
AcDbEntity
  8
A_RUNDUNGEN
100
AcDbLine
 62
8
  6
HIDDEN
 10
102.6590456738
 20
48.6682463675
 11
102.6590456738
 21
41.9682463675
  0
LINE
  5
2CB
100
AcDbEntity
  8
DEFAULT_2
100
AcDbLine
 62
8
  6
HIDDEN
 10
103.2090456738
 20
46.0054139402
 11
103.2090456738
 21
46.1182463675
  0
LINE
  5
2CC
100
AcDbEntity
  8
DEFAULT_2
100
AcDbLine
 62
8
  6
HIDDEN
 10
103.2090456738
 20
59.5182463675
 11
103.2090456738
 21
59.6310787948
  0
LINE
  5
2CD
100
AcDbEntity
  8
A_RUNDUNGEN
100
AcDbLine
 62
8
  6
HIDDEN
 10
104.4090456738
 20
55.1851034534
 11
104.4090456738
 21
50.4513892816
  0
LINE
  5
2CE
100
AcDbEntity
  8
DEFAULT_2
100
AcDbLine
 62
8
  6
HIDDEN
 10
104.4090456738
 20
54.8182463675
 11
104.4090456738
 21
50.8182463675
  0
LINE
  5
2CF
100
AcDbEntity
  8
A_RUNDUNGEN
100
AcDbLine
 62
8
  6
HIDDEN
 10
103.8053821386
 20
38.9293664132
 11
103.9004704578
 21
44.3769725707
  0
LINE
  5
2D0
100
AcDbEntity
  8
A_RUNDUNGEN
100
AcDbLine
 62
7
  6
CONTINUOUS
 10
94.6435941439
 20
17.6742679077
 11
102.2035702669
 21
23.3702070003
  0
LINE
  5
2D1
100
AcDbEntity
  8
A_RUNDUNGEN
100
AcDbLine
 62
8
  6
HIDDEN
 10
106.183728233
 20
31.5717700397
 11
105.991172619
 21
40.5364074737
  0
LINE
  5
2D2
100
AcDbEntity
  8
A_RUNDUNGEN
100
AcDbLine
 62
7
  6
CONTINUOUS
 10
107.1203216662
 20
31.7086718507
 11
107.0781671754
 21
33.7682463675
  0
LINE
  5
2D3
100
AcDbEntity
  8
A_RUNDUNGEN
100
AcDbLine
 62
8
  6
HIDDEN
 10
107.0781671754
 20
33.7682463675
 11
106.917992223
 21
41.5940377464
  0
LINE
  5
2D4
100
AcDbEntity
  8
A_RUNDUNGEN
100
AcDbLine
 62
8
  6
HIDDEN
 10
107.4132587898
 20
38.8978809507
 11
107.3176208898
 21
44.3769725707
  0
LINE
  5
2D5
100
AcDbEntity
  8
A_RUNDUNGEN
100
AcDbLine
 62
8
  6
HIDDEN
 10
104.8090456738
 20
66.7158851608
 11
104.8090456738
 21
59.0400861109
  0
LINE
  5
2D6
100
AcDbEntity
  8
A_RUNDUNGEN
100
AcDbLine
 62
8
  6
HIDDEN
 10
105.6090456738
 20
64.5818057141
 11
105.6090456738
 21
56.0546870209
  0
LINE
  5
2D7
100
AcDbEntity
  8
A_RUNDUNGEN
100
AcDbLine
 62
8
  6
HIDDEN
 10
105.6090456738
 20
49.5818057141
 11
105.6090456738
 21
41.0546870209
  0
LINE
  5
2D8
100
AcDbEntity
  8
A_ACHSEN
100
AcDbLine
 62
8
  6
HIDDEN
 10
109.2090456738
 20
65.6179109458
 11
109.2090456738
 21
62.9682463675
  0
LINE
  5
2D9
100
AcDbEntity
  8
DEFAULT_2
100
AcDbLine
 62
8
  6
HIDDEN
 10
109.2090456738
 20
64.8182463675
 11
109.2090456738
 21
61.1182463675
  0
LINE
  5
2DA
100
AcDbEntity
  8
DEFAULT_2
100
AcDbLine
 62
8
  6
HIDDEN
 10
109.2090456738
 20
60.9682463675
 11
109.2090456738
 21
61.1182463675
  0
LINE
  5
2DB
100
AcDbEntity
  8
DEFAULT_2
100
AcDbLine
 62
8
  6
HIDDEN
 10
109.2090456738
 20
64.8182463675
 11
109.2090456738
 21
64.9682463675
  0
LINE
  5
2DC
100
AcDbEntity
  8
DEFAULT_2
100
AcDbLine
 62
8
  6
HIDDEN
 10
109.4590456738
 20
54.8182463675
 11
109.4590456738
 21
50.8182463675
  0
LINE
  5
2DD
100
AcDbEntity
  8
0
100
AcDbLine
 62
7
  6
CONTINUOUS
 10
121.3552774472
 20
47.2682463675
 11
124.3090456738
 21
50.6439814836
  0
LINE
  5
2DE
100
AcDbEntity
  8
0
100
AcDbLine
 62
7
  6
CONTINUOUS
 10
121.8090456738
 20
46.2682463675
 11
125.3090456738
 21
50.2682463675
  0
LINE
  5
2DF
100
AcDbEntity
  8
A_ACHSEN
100
AcDbLine
 62
8
  6
HIDDEN
 10
86.1435941439
 20
3.6701467772
 11
86.6435941439
 21
4.1701467772
  0
LINE
  5
2E0
100
AcDbEntity
  8
DEFAULT_2
100
AcDbLine
 62
8
  6
HIDDEN
 10
82.1435941439
 20
3.8187332458
 11
81.9115433363
 21
3.6701467772
  0
LINE
  5
2E1
100
AcDbEntity
  8
A_FLAECHEN
100
AcDbLine
 62
8
  6
HIDDEN
 10
83.6435941439
 20
7.6031594791
 11
82.1435941439
 21
6.7371340754
  0
LINE
  5
2E2
100
AcDbEntity
  8
0
100
AcDbLine
 62
7
  6
CONTINUOUS
 10
125.3090456738
 20
84.7682463675
 11
72.3090456738
 21
84.7682463675
  0
LINE
  5
2E3
100
AcDbEntity
  8
0
100
AcDbLine
 62
7
  6
CONTINUOUS
 10
112.3090456738
 20
50.2682463675
 11
115.8090456738
 21
46.2682463675
  0
LINE
  5
2E4
100
AcDbEntity
  8
0
100
AcDbLine
 62
7
  6
CONTINUOUS
 10
113.3090456738
 20
50.6439814836
 11
116.2628139004
 21
47.2682463675
  0
LINE
  5
2E5
100
AcDbEntity
  8
A_RUNDUNGEN
100
AcDbLine
 62
8
  6
HIDDEN
 10
110.8090456738
 20
66.7682463675
 11
110.8090456738
 21
54.4953235205
  0
LINE
  5
2E6
100
AcDbEntity
  8
DEFAULT_2
100
AcDbLine
 62
8
  6
HIDDEN
 10
110.8090456738
 20
66.7682463675
 11
110.8090456738
 21
38.9682463675
  0
LINE
  5
2E7
100
AcDbEntity
  8
A_RUNDUNGEN
100
AcDbLine
 62
8
  6
HIDDEN
 10
110.8090456738
 20
51.1411692145
 11
110.8090456738
 21
49.0682463675
  0
LINE
  5
2E8
100
AcDbEntity
  8
A_RUNDUNGEN
100
AcDbLine
 62
8
  6
HIDDEN
 10
110.8090456738
 20
45.4682312335
 11
110.8090456738
 21
38.8682463675
  0
LINE
  5
2E9
100
AcDbEntity
  8
DEFAULT_2
100
AcDbLine
 62
8
  6
HIDDEN
 10
110.8090456738
 20
38.8682463675
 11
110.8090456738
 21
38.9682463675
  0
LINE
  5
2EA
100
AcDbEntity
  8
A_FASEN
100
AcDbLine
 62
8
  6
HIDDEN
 10
112.3090456738
 20
56.8682463675
 11
112.3090456738
 21
48.8682463675
  0
LINE
  5
2EB
100
AcDbEntity
  8
0
100
AcDbLine
 62
7
  6
CONTINUOUS
 10
112.3090456738
 20
53.2682463675
 11
112.3090456738
 21
34.7682463675
  0
LINE
  5
2EC
100
AcDbEntity
  8
A_RUNDUNGEN
100
AcDbLine
 62
7
  6
CONTINUOUS
 10
112.3090456738
 20
34.0186617426
 11
112.3090456738
 21
34.7682463675
  0
LINE
  5
2ED
100
AcDbEntity
  8
DEFAULT_2
100
AcDbLine
 62
8
  6
HIDDEN
 10
112.3090456738
 20
53.2682463675
 11
112.3090456738
 21
66.7682463675
  0
LINE
  5
2EE
100
AcDbEntity
  8
0
100
AcDbLine
 62
7
  6
CONTINUOUS
 10
113.3090456738
 20
52.2682463675
 11
113.3090456738
 21
50.6439814836
  0
LINE
  5
2EF
100
AcDbEntity
  8
0
100
AcDbLine
 62
7
  6
CONTINUOUS
 10
124.3090456738
 20
50.6439814836
 11
124.3090456738
 21
52.2682463675
  0
LINE
  5
2F0
100
AcDbEntity
  8
0
100
AcDbLine
 62
7
  6
CONTINUOUS
 10
125.3090456738
 20
50.2682463675
 11
125.3090456738
 21
84.7682463675
  0
ARC
  5
2F1
100
AcDbEntity
  8
A_RUNDUNGEN
100
AcDbCircle
 62
7
  6
CONTINUOUS
 10
80.6435941439
 20
7.6701467772
 40
4.0
100
AcDbArc
 50
180.0
 51
270.0
  0
ARC
  5
2F2
100
AcDbEntity
  8
A_RUNDUNGEN
100
AcDbCircle
 62
7
  6
CONTINUOUS
 10
81.3941611944
 20
12.8701467772
 40
1.0
100
AcDbArc
 50
215.0
 51
270.0
  0
ARC
  5
2F3
100
AcDbEntity
  8
A_RUNDUNGEN
100
AcDbCircle
 62
7
  6
CONTINUOUS
 10
81.0661094244
 20
12.8701467772
 40
1.0
100
AcDbArc
 50
214.824489157
 51
270.0
  0
ARC
  5
2F4
100
AcDbEntity
  8
A_RUNDUNGEN
100
AcDbCircle
 62
7
  6
CONTINUOUS
 10
79.2092246597
 20
14.7701467772
 40
0.3
100
AcDbArc
 50
90.0
 51
215.0
  0
ARC
  5
2F5
100
AcDbEntity
  8
A_RUNDUNGEN
100
AcDbCircle
 62
7
  6
CONTINUOUS
 10
86.1435941439
 20
12.3701467772
 40
0.5
100
AcDbArc
 50
270.0
 51
360.0
  0
ARC
  5
2F6
100
AcDbEntity
  8
A_ACHSEN
100
AcDbCircle
 62
8
  6
HIDDEN
 10
91.6435918296
 20
19.1701550311
 40
3.0
100
AcDbArc
 50
119.0302934648
 51
306.9955934648
  0
CIRCLE
  5
2F7
100
AcDbEntity
  8
DEFAULT_2
100
AcDbCircle
 62
8
  6
HIDDEN
 10
91.6435918296
 20
19.1701550311
 40
2.5
  0
CIRCLE
  5
2F8
100
AcDbEntity
  8
A_FASEN
100
AcDbCircle
 62
8
  6
HIDDEN
 10
91.6435918296
 20
19.1701550311
 40
2.2
  0
CIRCLE
  5
2F9
100
AcDbEntity
  8
DEFAULT_2
100
AcDbCircle
 62
8
  6
HIDDEN
 10
91.6435918296
 20
19.1701550311
 40
2.2
  0
CIRCLE
  5
2FA
100
AcDbEntity
  8
0
100
AcDbCircle
 62
7
  6
CONTINUOUS
 10
91.6435941439
 20
19.1701467772
 40
2.0
  0
CIRCLE
  5
2FB
100
AcDbEntity
  8
A_FASEN
100
AcDbCircle
 62
8
  6
HIDDEN
 10
91.6435918296
 20
19.1701550311
 40
1.85
  0
CIRCLE
  5
2FC
100
AcDbEntity
  8
0
100
AcDbCircle
 62
7
  6
CONTINUOUS
 10
91.6435941439
 20
19.1701467772
 40
1.75
  0
ARC
  5
2FD
100
AcDbEntity
  8
A_RUNDUNGEN
100
AcDbCircle
 62
7
  6
CONTINUOUS
 10
85.6435941439
 20
13.5548479884
 40
1.0
100
AcDbArc
 50
0.0
 51
35.0
  0
ARC
  5
2FE
100
AcDbEntity
  8
A_RUNDUNGEN
100
AcDbCircle
 62
7
  6
CONTINUOUS
 10
85.6435941439
 20
17.1701467772
 40
1.0
100
AcDbArc
 50
269.5106817518
 51
360.0
  0
ARC
  5
2FF
100
AcDbEntity
  8
A_RUNDUNGEN
100
AcDbCircle
 62
7
  6
CONTINUOUS
 10
85.6471749828
 20
14.7701467772
 40
0.3
100
AcDbArc
 50
35.0
 51
90.0
  0
ARC
  5
300
100
AcDbEntity
  8
A_RUNDUNGEN
100
AcDbCircle
 62
7
  6
CONTINUOUS
 10
85.6350537217
 20
15.9701467772
 40
0.2
100
AcDbArc
 50
90.0
 51
214.824489157
  0
ARC
  5
301
100
AcDbEntity
  8
A_RUNDUNGEN
100
AcDbCircle
 62
7
  6
CONTINUOUS
 10
86.4435941439
 20
14.1074236341
 40
0.2
100
AcDbArc
 50
0.0
 51
34.824489157
  0
ARC
  5
302
100
AcDbEntity
  8
A_ACHSEN
100
AcDbCircle
 62
8
  6
HIDDEN
 10
91.64359368
 20
24.1701582467
 40
3.0
100
AcDbArc
 50
91.1725418051
 51
286.1725418051
  0
CIRCLE
  5
303
100
AcDbEntity
  8
DEFAULT_2
100
AcDbCircle
 62
8
  6
HIDDEN
 10
91.64359368
 20
24.1701582467
 40
2.5
  0
CIRCLE
  5
304
100
AcDbEntity
  8
DEFAULT_2
100
AcDbCircle
 62
8
  6
HIDDEN
 10
91.64359368
 20
24.1701582467
 40
2.2
  0
ARC
  5
305
100
AcDbEntity
  8
A_RUNDUNGEN
100
AcDbCircle
 62
7
  6
CONTINUOUS
 10
78.6435941439
 20
29.6701467772
 40
2.0
100
AcDbArc
 50
90.0
 51
180.0
  0
CIRCLE
  5
306
100
AcDbEntity
  8
0
100
AcDbCircle
 62
7
  6
CONTINUOUS
 10
91.6435941439
 20
24.1701467772
 40
1.75
  0
ARC
  5
307
100
AcDbEntity
  8
A_RUNDUNGEN
100
AcDbCircle
 62
7
  6
CONTINUOUS
 10
85.6435941439
 20
26.6701467772
 40
1.0
100
AcDbArc
 50
0.0
 51
90.0
  0
ARC
  5
308
100
AcDbEntity
  8
A_RUNDUNGEN
100
AcDbCircle
 62
8
  6
HIDDEN
 10
96.1860342721
 20
31.3570249244
 40
10.0
100
AcDbArc
 50
322.7224906
 51
1.2304934648
  0
ARC
  5
309
100
AcDbEntity
  8
A_RUNDUNGEN
100
AcDbCircle
 62
7
  6
CONTINUOUS
 10
96.1860342721
 20
31.3570249244
 40
10.0
100
AcDbArc
 50
306.9955934648
 51
322.7224906
  0
ARC
  5
30A
100
AcDbEntity
  8
A_RUNDUNGEN
100
AcDbCircle
 62
7
  6
CONTINUOUS
 10
99.121996826
 20
31.5449655571
 40
8.0
100
AcDbArc
 50
286.1725418051
 51
1.1725418051
  0
ARC
  5
30B
100
AcDbEntity
  8
A_RUNDUNGEN
100
AcDbCircle
 62
8
  6
HIDDEN
 10
97.1854406783
 20
31.3953988313
 40
5.0
100
AcDbArc
 50
299.0302934648
 51
323.943507089
  0
ARC
  5
30C
100
AcDbEntity
  8
A_RUNDUNGEN
100
AcDbCircle
 62
7
  6
CONTINUOUS
 10
98.1062495711
 20
32.3041086354
 40
5.0
100
AcDbArc
 50
271.1725418051
 51
1.1725418051
  0
ARC
  5
30D
100
AcDbEntity
  8
A_RUNDUNGEN
100
AcDbCircle
 62
7
  6
CONTINUOUS
 10
97.1854406783
 20
31.3953988313
 40
5.0
100
AcDbArc
 50
323.943507089
 51
1.2304934648
  0
ARC
  5
30E
100
AcDbEntity
  8
A_RUNDUNGEN
100
AcDbCircle
 62
7
  6
CONTINUOUS
 10
95.6435941439
 20
29.6701467772
 40
2.0
100
AcDbArc
 50
0.0
 51
90.0
  0
ARC
  5
30F
100
AcDbEntity
  8
A_RUNDUNGEN
100
AcDbCircle
 62
7
  6
CONTINUOUS
 10
98.5931974545
 20
35.2682463675
 40
1.5
100
AcDbArc
 50
252.2553283749
 51
270.0
  0
ARC
  5
310
100
AcDbEntity
  8
A_RUNDUNGEN
100
AcDbCircle
 62
7
  6
CONTINUOUS
 10
97.3590456738
 20
34.5182463675
 40
0.25
100
AcDbArc
 50
90.0
 51
180.0
  0
ARC
  5
311
100
AcDbEntity
  8
A_RUNDUNGEN
100
AcDbCircle
 62
7
  6
CONTINUOUS
 10
112.0590456738
 20
34.5182463675
 40
0.25
100
AcDbArc
 50
0.0
 51
67.5
  0
ARC
  5
312
100
AcDbEntity
  8
A_RUNDUNGEN
100
AcDbCircle
 62
7
  6
CONTINUOUS
 10
97.3590456738
 20
34.3507344625
 40
0.25
100
AcDbArc
 50
180.0
 51
252.2553283749
  0
ARC
  5
313
100
AcDbEntity
  8
A_RUNDUNGEN
100
AcDbCircle
 62
8
  6
HIDDEN
 10
76.8090456738
 20
39.8751532515
 40
0.5
100
AcDbArc
 50
180.0
 51
224.75
  0
ARC
  5
314
100
AcDbEntity
  8
A_RUNDUNGEN
100
AcDbCircle
 62
8
  6
HIDDEN
 10
77.7090456738
 20
40.5156352037
 40
0.5
100
AcDbArc
 50
180.0
 51
269.7
  0
ARC
  5
315
100
AcDbEntity
  8
A_RUNDUNGEN
100
AcDbCircle
 62
8
  6
HIDDEN
 10
76.9771749359
 20
39.5635078619
 40
0.4
100
AcDbArc
 50
224.75
 51
269.5
  0
ARC
  5
316
100
AcDbEntity
  8
A_RUNDUNGEN
100
AcDbCircle
 62
8
  6
HIDDEN
 10
76.8090456738
 20
48.5073359729
 40
0.5
100
AcDbArc
 50
180.0
 51
224.0
  0
ARC
  5
317
100
AcDbEntity
  8
A_RUNDUNGEN
100
AcDbCircle
 62
8
  6
HIDDEN
 10
76.8090456738
 20
49.7861395863
 40
0.5
100
AcDbArc
 50
135.000001341
 51
179.9999994984
  0
ARC
  5
318
100
AcDbEntity
  8
A_RUNDUNGEN
100
AcDbCircle
 62
8
  6
HIDDEN
 10
77.016152455
 20
49.9932463675
 40
0.5
100
AcDbArc
 50
90.0
 51
135.0000070685
  0
ARC
  5
319
100
AcDbEntity
  8
A_RUNDUNGEN
100
AcDbCircle
 62
8
  6
HIDDEN
 10
76.9712972927
 20
48.1953638491
 40
0.4
100
AcDbArc
 50
224.0
 51
268.0
  0
ARC
  5
31A
100
AcDbEntity
  8
A_ACHSEN
100
AcDbCircle
 62
8
  6
HIDDEN
 10
90.8590456738
 20
43.9182463675
 40
3.0
100
AcDbArc
 50
93.1725418051
 51
276.1725418051
  0
ARC
  5
31B
100
AcDbEntity
  8
A_ACHSEN
100
AcDbCircle
 62
8
  6
HIDDEN
 10
84.8590456738
 20
43.4182463675
 40
3.0
100
AcDbArc
 50
86.5044934648
 51
272.5624934648
  0
CIRCLE
  5
31C
100
AcDbEntity
  8
A_ACHSEN
100
AcDbCircle
 62
8
  6
HIDDEN
 10
84.8590456738
 20
43.4182463675
 40
2.5
  0
CIRCLE
  5
31D
100
AcDbEntity
  8
DEFAULT_2
100
AcDbCircle
 62
8
  6
HIDDEN
 10
90.8590456738
 20
43.9182463675
 40
2.5
  0
CIRCLE
  5
31E
100
AcDbEntity
  8
A_FASEN
100
AcDbCircle
 62
8
  6
HIDDEN
 10
84.8590456738
 20
43.4182463675
 40
2.2
  0
CIRCLE
  5
31F
100
AcDbEntity
  8
DEFAULT_2
100
AcDbCircle
 62
8
  6
HIDDEN
 10
90.8590456738
 20
43.9182463675
 40
2.2
  0
CIRCLE
  5
320
100
AcDbEntity
  8
A_ACHSEN
100
AcDbCircle
 62
8
  6
HIDDEN
 10
84.8590456738
 20
43.4182463675
 40
2.2
  0
CIRCLE
  5
321
100
AcDbEntity
  8
A_FASEN
100
AcDbCircle
 62
8
  6
HIDDEN
 10
84.8590456738
 20
43.4182463675
 40
1.85
  0
ARC
  5
322
100
AcDbEntity
  8
A_RUNDUNGEN
100
AcDbCircle
 62
8
  6
HIDDEN
 10
86.5590456738
 20
46.709851322
 40
0.75
100
AcDbArc
 50
0.0
 51
87.9999999811
  0
ARC
  5
323
100
AcDbEntity
  8
DEFAULT_2
100
AcDbCircle
 62
8
  6
HIDDEN
 10
91.7090456738
 20
46.5656352037
 40
0.5
100
AcDbArc
 50
243.4798867806
 51
269.7
  0
ARC
  5
324
100
AcDbEntity
  8
A_RUNDUNGEN
100
AcDbCircle
 62
8
  6
HIDDEN
 10
91.7090456738
 20
46.5656352037
 40
0.5
100
AcDbArc
 50
180.0
 51
269.7
  0
ARC
  5
325
100
AcDbEntity
  8
A_RUNDUNGEN
100
AcDbCircle
 62
8
  6
HIDDEN
 10
86.5590456738
 20
58.926641413
 40
0.75
100
AcDbArc
 50
272.0
 51
360.0
  0
ARC
  5
326
100
AcDbEntity
  8
DEFAULT_2
100
AcDbCircle
 62
8
  6
HIDDEN
 10
91.7090456738
 20
59.0708575313
 40
0.5
100
AcDbArc
 50
90.3
 51
116.5201132194
  0
ARC
  5
327
100
AcDbEntity
  8
A_RUNDUNGEN
100
AcDbCircle
 62
8
  6
HIDDEN
 10
76.8090456738
 20
65.7613394835
 40
0.5
100
AcDbArc
 50
135.25
 51
180.0
  0
ARC
  5
328
100
AcDbEntity
  8
A_RUNDUNGEN
100
AcDbCircle
 62
8
  6
HIDDEN
 10
76.8090456738
 20
57.1291567621
 40
0.5
100
AcDbArc
 50
136.0
 51
180.0
  0
ARC
  5
329
100
AcDbEntity
  8
A_RUNDUNGEN
100
AcDbCircle
 62
8
  6
HIDDEN
 10
91.7090456738
 20
59.0708575313
 40
0.5
100
AcDbArc
 50
90.3
 51
180.0
  0
ARC
  5
32A
100
AcDbEntity
  8
A_RUNDUNGEN
100
AcDbCircle
 62
8
  6
HIDDEN
 10
76.8090456738
 20
55.8503531487
 40
0.5
100
AcDbArc
 50
180.0000005016
 51
224.999998659
  0
ARC
  5
32B
100
AcDbEntity
  8
A_RUNDUNGEN
100
AcDbCircle
 62
8
  6
HIDDEN
 10
77.016152455
 20
55.6432463675
 40
0.5
100
AcDbArc
 50
224.9999929315
 51
270.0
  0
ARC
  5
32C
100
AcDbEntity
  8
A_RUNDUNGEN
100
AcDbCircle
 62
8
  6
HIDDEN
 10
77.7090456738
 20
65.0708575313
 40
0.5
100
AcDbArc
 50
90.3
 51
180.0
  0
ARC
  5
32D
100
AcDbEntity
  8
A_RUNDUNGEN
100
AcDbCircle
 62
8
  6
HIDDEN
 10
76.9771749359
 20
66.0729848731
 40
0.4
100
AcDbArc
 50
90.5
 51
135.25
  0
ARC
  5
32E
100
AcDbEntity
  8
A_RUNDUNGEN
100
AcDbCircle
 62
8
  6
HIDDEN
 10
76.9712972927
 20
57.4411288859
 40
0.4
100
AcDbArc
 50
92.0
 51
136.0
  0
ARC
  5
32F
100
AcDbEntity
  8
A_RUNDUNGEN
100
AcDbCircle
 62
8
  6
HIDDEN
 10
100.9192485929
 20
41.4712580262
 40
6.0
100
AcDbArc
 50
1.1725418051
 51
93.1725418051
  0
ARC
  5
330
100
AcDbEntity
  8
A_RUNDUNGEN
100
AcDbCircle
 62
8
  6
HIDDEN
 10
100.9923256386
 20
40.429034916
 40
5.0
100
AcDbArc
 50
1.2304934648
 51
86.5044934648
  0
ARC
  5
331
100
AcDbEntity
  8
A_RUNDUNGEN
100
AcDbCircle
 62
8
  6
HIDDEN
 10
99.972303983
 20
38.868857131
 40
3.0
100
AcDbArc
 50
1.1725418051
 51
96.1725418051
  0
ARC
  5
332
100
AcDbEntity
  8
A_RUNDUNGEN
100
AcDbCircle
 62
8
  6
HIDDEN
 10
100.0208183203
 20
39.0917884267
 40
2.0
100
AcDbArc
 50
1.2304934648
 51
92.5624934648
  0
ARC
  5
333
100
AcDbEntity
  8
A_RUNDUNGEN
100
AcDbCircle
 62
8
  6
HIDDEN
 10
102.6590456738
 20
41.5352336656
 40
0.25
100
AcDbArc
 50
120.0
 51
180.0
  0
ARC
  5
334
100
AcDbEntity
  8
A_RUNDUNGEN
100
AcDbCircle
 62
8
  6
HIDDEN
 10
102.9090456738
 20
42.4210796102
 40
0.25
100
AcDbArc
 50
91.0
 51
180.0
  0
ARC
  5
335
100
AcDbEntity
  8
A_RUNDUNGEN
100
AcDbCircle
 62
8
  6
HIDDEN
 10
102.6590456738
 20
39.5444670296
 40
0.25
100
AcDbArc
 50
180.0
 51
224.7499999931
  0
ARC
  5
336
100
AcDbEntity
  8
A_RUNDUNGEN
100
AcDbCircle
 62
8
  6
HIDDEN
 10
103.0141193232
 20
39.1862811788
 40
0.25
100
AcDbArc
 50
224.75
 51
269.5
  0
ARC
  5
337
100
AcDbEntity
  8
A_RUNDUNGEN
100
AcDbCircle
 62
8
  6
HIDDEN
 10
102.4090456738
 20
41.9682463675
 40
0.25
100
AcDbArc
 50
300.0
 51
360.0
  0
ARC
  5
338
100
AcDbEntity
  8
A_RUNDUNGEN
100
AcDbCircle
 62
8
  6
HIDDEN
 10
102.9090456738
 20
49.3600807805
 40
0.5
100
AcDbArc
 50
95.0000001291
 51
180.0
  0
ARC
  5
339
100
AcDbEntity
  8
A_RUNDUNGEN
100
AcDbCircle
 62
8
  6
HIDDEN
 10
102.6590456738
 20
49.1012590694
 40
0.25
100
AcDbArc
 50
180.0
 51
240.0
  0
ARC
  5
33A
100
AcDbEntity
  8
A_RUNDUNGEN
100
AcDbCircle
 62
8
  6
HIDDEN
 10
102.9090456738
 20
48.2154131248
 40
0.25
100
AcDbArc
 50
180.0
 51
269.0
  0
ARC
  5
33B
100
AcDbEntity
  8
A_RUNDUNGEN
100
AcDbCircle
 62
8
  6
HIDDEN
 10
102.4090456738
 20
48.6682463675
 40
0.25
100
AcDbArc
 50
0.0
 51
60.0
  0
ARC
  5
33C
100
AcDbEntity
  8
A_RUNDUNGEN
100
AcDbCircle
 62
8
  6
HIDDEN
 10
104.4003943054
 20
44.3682463675
 40
0.5
100
AcDbArc
 50
90.0
 51
179.0
  0
ARC
  5
33D
100
AcDbEntity
  8
A_RUNDUNGEN
100
AcDbCircle
 62
8
  6
HIDDEN
 10
106.8176970423
 20
44.3682463675
 40
0.5
100
AcDbArc
 50
1.0
 51
90.0
  0
ARC
  5
33E
100
AcDbEntity
  8
A_RUNDUNGEN
100
AcDbCircle
 62
8
  6
HIDDEN
 10
105.1090456738
 20
42.209442671
 40
0.5
100
AcDbArc
 50
0.0
 51
91.0
  0
ARC
  5
33F
100
AcDbEntity
  8
A_RUNDUNGEN
100
AcDbCircle
 62
8
  6
HIDDEN
 10
105.8590456738
 20
41.0546870209
 40
0.25
100
AcDbArc
 50
180.0
 51
269.0
  0
ARC
  5
340
100
AcDbEntity
  8
A_RUNDUNGEN
100
AcDbCircle
 62
8
  6
HIDDEN
 10
105.1090456738
 20
48.427050064
 40
0.5
100
AcDbArc
 50
269.0
 51
360.0
  0
ARC
  5
341
100
AcDbEntity
  8
A_RUNDUNGEN
100
AcDbCircle
 62
8
  6
HIDDEN
 10
104.9090456738
 20
50.4682463675
 40
0.5
100
AcDbArc
 50
90.0
 51
179.9999994494
  0
ARC
  5
342
100
AcDbEntity
  8
A_RUNDUNGEN
100
AcDbCircle
 62
8
  6
HIDDEN
 10
103.9090456738
 20
50.4513892816
 40
0.5
100
AcDbArc
 50
275.0
 51
360.0
  0
ARC
  5
343
100
AcDbEntity
  8
A_RUNDUNGEN
100
AcDbCircle
 62
8
  6
HIDDEN
 10
105.8590456738
 20
49.5818057141
 40
0.25
100
AcDbArc
 50
91.0
 51
180.0
  0
ARC
  5
344
100
AcDbEntity
  8
A_RUNDUNGEN
100
AcDbCircle
 62
8
  6
HIDDEN
 10
104.3090456738
 20
60.1368452879
 40
0.5
100
AcDbArc
 50
270.3
 51
360.0
  0
ARC
  5
345
100
AcDbEntity
  8
A_RUNDUNGEN
100
AcDbCircle
 62
8
  6
HIDDEN
 10
105.1090456738
 20
57.209442671
 40
0.5
100
AcDbArc
 50
0.0
 51
91.0
  0
ARC
  5
346
100
AcDbEntity
  8
A_RUNDUNGEN
100
AcDbCircle
 62
8
  6
HIDDEN
 10
104.9090456738
 20
55.1682463675
 40
0.5
100
AcDbArc
 50
180.0000005506
 51
270.0
  0
ARC
  5
347
100
AcDbEntity
  8
A_RUNDUNGEN
100
AcDbCircle
 62
8
  6
HIDDEN
 10
102.9090456738
 20
56.2764119545
 40
0.5
100
AcDbArc
 50
180.0
 51
265.0
  0
ARC
  5
348
100
AcDbEntity
  8
A_RUNDUNGEN
100
AcDbCircle
 62
8
  6
HIDDEN
 10
103.9090456738
 20
55.1851034534
 40
0.5
100
AcDbArc
 50
0.0
 51
85.0
  0
ARC
  5
349
100
AcDbEntity
  8
A_RUNDUNGEN
100
AcDbCircle
 62
8
  6
HIDDEN
 10
102.6590456738
 20
56.5352336656
 40
0.25
100
AcDbArc
 50
120.0
 51
180.0
  0
ARC
  5
34A
100
AcDbEntity
  8
A_RUNDUNGEN
100
AcDbCircle
 62
8
  6
HIDDEN
 10
105.8590456738
 20
56.0546870209
 40
0.25
100
AcDbArc
 50
180.0
 51
269.0
  0
ARC
  5
34B
100
AcDbEntity
  8
A_RUNDUNGEN
100
AcDbCircle
 62
8
  6
HIDDEN
 10
102.9090456738
 20
57.4210796102
 40
0.25
100
AcDbArc
 50
91.0
 51
180.0
  0
ARC
  5
34C
100
AcDbEntity
  8
A_RUNDUNGEN
100
AcDbCircle
 62
8
  6
HIDDEN
 10
102.4090456738
 20
56.9682463675
 40
0.25
100
AcDbArc
 50
300.0
 51
360.0
  0
ARC
  5
34D
100
AcDbEntity
  8
A_RUNDUNGEN
100
AcDbCircle
 62
8
  6
HIDDEN
 10
105.1090456738
 20
63.427050064
 40
0.5
100
AcDbArc
 50
269.0
 51
360.0
  0
ARC
  5
34E
100
AcDbEntity
  8
A_RUNDUNGEN
100
AcDbCircle
 62
8
  6
HIDDEN
 10
102.6590456738
 20
64.1012590694
 40
0.25
100
AcDbArc
 50
180.0
 51
240.0
  0
ARC
  5
34F
100
AcDbEntity
  8
A_RUNDUNGEN
100
AcDbCircle
 62
8
  6
HIDDEN
 10
105.8590456738
 20
64.5818057141
 40
0.25
100
AcDbArc
 50
91.0
 51
180.0
  0
ARC
  5
350
100
AcDbEntity
  8
A_RUNDUNGEN
100
AcDbCircle
 62
8
  6
HIDDEN
 10
102.9090456738
 20
63.2154131248
 40
0.25
100
AcDbArc
 50
180.0
 51
269.0
  0
ARC
  5
351
100
AcDbEntity
  8
A_RUNDUNGEN
100
AcDbCircle
 62
8
  6
HIDDEN
 10
102.6590456738
 20
66.0920257054
 40
0.25
100
AcDbArc
 50
135.25
 51
180.0
  0
ARC
  5
352
100
AcDbEntity
  8
A_RUNDUNGEN
100
AcDbCircle
 62
8
  6
HIDDEN
 10
103.0141193232
 20
66.4502115562
 40
0.25
100
AcDbArc
 50
90.5
 51
135.2500000171
  0
ARC
  5
353
100
AcDbEntity
  8
A_RUNDUNGEN
100
AcDbCircle
 62
8
  6
HIDDEN
 10
102.4090456738
 20
63.6682463675
 40
0.25
100
AcDbArc
 50
0.0
 51
60.0
  0
ARC
  5
354
100
AcDbEntity
  8
A_RUNDUNGEN
100
AcDbCircle
 62
8
  6
HIDDEN
 10
110.3090456738
 20
66.1182463675
 40
0.5
100
AcDbArc
 50
270.0
 51
360.0
  0
ARC
  5
355
100
AcDbEntity
  8
A_RUNDUNGEN
100
AcDbCircle
 62
8
  6
HIDDEN
 10
110.3090456738
 20
66.241566
 40
0.5
100
AcDbArc
 50
270.3
 51
360.0
  0
ARC
  5
356
100
AcDbEntity
  8
A_RUNDUNGEN
100
AcDbCircle
 62
8
  6
HIDDEN
 10
171.0748545654
 20
53.2925058516
 40
66.6658166091
100
AcDbArc
 50
180.0275693117
 51
180.1829780698
  0
SPLINE
  5
357
100
AcDbEntity
  8
DEFAULT_2
100
AcDbSpline
 62
8
  6
HIDDEN
 70
0
 71
3
 72
13
 73
9
 74
0
 42
0.0000001
 43
0.0000001
 44
0.0000000001
 40
0.0
 40
0.0
 40
0.0
 40
0.0
 40
0.250768581
 40
0.375490064
 40
0.5000012175
 40
0.6245129445
 40
0.7492343186
 40
1.0
 40
1.0
 40
1.0
 40
1.0
 10
82.1435941439
 20
6.6031594791
 30
0.0
 10
82.2648915115
 20
6.643591935
 30
0.0
 10
82.4502812497
 20
6.6945729657
 30
0.0
 10
82.7029511308
 20
6.7308162349
 30
0.0
 10
82.8935962851
 20
6.7397212455
 30
0.0
 10
83.084240685
 20
6.7308100762
 30
0.0
 10
83.3369106614
 20
6.6945765881
 30
0.0
 10
83.5222981788
 20
6.6435914675
 30
0.0
 10
83.6435941439
 20
6.6031594791
 30
0.0
  0
SPLINE
  5
358
100
AcDbEntity
  8
DEFAULT_2
100
AcDbSpline
 62
8
  6
HIDDEN
 70
0
 71
3
 72
13
 73
9
 74
0
 42
0.0000001
 43
0.0000001
 44
0.0000000001
 40
0.0
 40
0.0
 40
0.0
 40
0.0
 40
0.250768581
 40
0.375490064
 40
0.5000012175
 40
0.6245129445
 40
0.7492343186
 40
1.0
 40
1.0
 40
1.0
 40
1.0
 10
83.6435941439
 20
6.6031594791
 30
0.0
 10
83.7648915115
 20
6.643591935
 30
0.0
 10
83.9502812497
 20
6.6945729657
 30
0.0
 10
84.2029511308
 20
6.7308162349
 30
0.0
 10
84.3935962851
 20
6.7397212455
 30
0.0
 10
84.584240685
 20
6.7308100762
 30
0.0
 10
84.8369106614
 20
6.6945765881
 30
0.0
 10
85.0222981788
 20
6.6435914675
 30
0.0
 10
85.1435941439
 20
6.6031594791
 30
0.0
  0
SPLINE
  5
359
100
AcDbEntity
  8
DEFAULT_2
100
AcDbSpline
 62
8
  6
HIDDEN
 70
0
 71
3
 72
11
 73
7
 74
0
 42
0.0000001
 43
0.0000001
 44
0.0000000001
 40
0.0
 40
0.0
 40
0.0
 40
0.0
 40
0.25111694
 40
0.5
 40
0.74888306
 40
1.0
 40
1.0
 40
1.0
 40
1.0
 10
82.1435941439
 20
3.6701467772
 30
0.0
 10
82.2626581355
 20
3.7187544483
 30
0.0
 10
82.5095544518
 20
3.793333866
 30
0.0
 10
82.8935941439
 20
3.8314084128
 30
0.0
 10
83.277633836
 20
3.793333866
 30
0.0
 10
83.5245301522
 20
3.7187544483
 30
0.0
 10
83.6435941439
 20
3.6701467772
 30
0.0
  0
SPLINE
  5
35A
100
AcDbEntity
  8
DEFAULT_2
100
AcDbSpline
 62
8
  6
HIDDEN
 70
0
 71
3
 72
11
 73
7
 74
0
 42
0.0000001
 43
0.0000001
 44
0.0000000001
 40
0.0
 40
0.0
 40
0.0
 40
0.0
 40
0.25111694
 40
0.5
 40
0.74888306
 40
1.0
 40
1.0
 40
1.0
 40
1.0
 10
83.6435941439
 20
3.6701467772
 30
0.0
 10
83.7626581355
 20
3.7187544483
 30
0.0
 10
84.0095544518
 20
3.793333866
 30
0.0
 10
84.3935941439
 20
3.8314084128
 30
0.0
 10
84.777633836
 20
3.793333866
 30
0.0
 10
85.0245301522
 20
3.7187544483
 30
0.0
 10
85.1435941439
 20
3.6701467772
 30
0.0
  0
SPLINE
  5
35B
100
AcDbEntity
  8
A_RUNDUNGEN
100
AcDbSpline
 62
8
  6
HIDDEN
 70
0
 71
3
 72
9
 73
5
 74
0
 42
0.0000001
 43
0.0000001
 44
0.0000000001
 40
0.0
 40
0.0
 40
0.0
 40
0.0
 40
0.4999994613
 40
1.0
 40
1.0
 40
1.0
 40
1.0
 10
104.4090456738
 20
52.376064824
 30
0.0
 10
104.4090456734
 20
52.5234587448
 30
0.0
 10
104.4106138071
 20
52.8182462087
 30
0.0
 10
104.4090456921
 20
53.1130336727
 30
0.0
 10
104.4090456738
 20
53.260427911
 30
0.0
  0
SPLINE
  5
35C
100
AcDbEntity
  8
A_RUNDUNGEN
100
AcDbSpline
 62
8
  6
HIDDEN
 70
0
 71
3
 72
10
 73
6
 74
0
 42
0.0000001
 43
0.0000001
 44
0.0000000001
 40
0.0
 40
0.0
 40
0.0
 40
0.0
 40
0.1059553304
 40
0.3549570686
 40
1.0
 40
1.0
 40
1.0
 40
1.0
 10
91.2090456738
 20
39.9449486514
 30
0.0
 10
91.2263864057
 20
39.9627395597
 30
0.0
 10
91.2847438
 20
40.0220780043
 30
0.0
 10
91.4508771494
 20
40.1875388152
 30
0.0
 10
91.5992040218
 20
40.3356655224
 30
0.0
 10
91.7064276919
 20
40.4423307052
 30
0.0
  0
ENDSEC
  0
SECTION
  2
OBJECTS
  0
DICTIONARY
  5
35D
100
AcDbDictionary
  3
ACAD_GROUP
350
35E
  3
ACAD_MLINESTYLE
350
35F
  0
DICTIONARY
  5
35E
102
{ACAD_REACTORS
330
35D
102
}
100
AcDbDictionary
  0
DICTIONARY
  5
35F
102
{ACAD_REACTORS
330
35D
102
}
100
AcDbDictionary
  3
STANDARD
350
360
  0
MLINESTYLE
  5
360
102
{ACAD_REACTORS
330
35F
102
}
100
AcDbMlineStyle
  2
STANDARD
 70
0
  3

 62
256
 51
90.0
 52
90.0
 71
2
 49
0.5
 62
256
  6
BYLAYER
 49
-0.5
 62
256
  6
BYLAYER
  0
ENDSEC
  0
EOF
