999
DXF file: d:\tmp\workingDir\0000076858\teg_310_2d_90_q01_01.dxf
999
Pro/ENGINEER 2016380 by Parametric Technology Corporation
  0
SECTION
  2
HEADER
  9
$ACADVER
  1
AC1014
  9
$DWGCODEPAGE
  3
ANSI_1252
  9
$EXTMAX
 10
70.104
 20
150.0
 30
0.0
  9
$EXTMIN
 10
0.0
 20
0.0
 30
0.0
  9
$LIMMIN
 10
0.0
 20
0.0
  9
$LIMMAX
 10
70.104
 20
150.0
  9
$VIEWCTR
 10
35.052
 20
75.0
  9
$VIEWSIZE
 40
150.0
  9
$CLAYER
  8
0
  9
$LTSCALE
 40
9.7777777778
  9
$CELTYPE
  6
BYLAYER
  9
$DIMSCALE
 40
1.0
  9
$DIMASZ
 40
3.5
  9
$DIMEXO
 40
0.0
  9
$DIMDLI
 40
6.7555555556
  9
$DIMEXE
 40
2.0
  9
$DIMCEN
 40
1.6
  9
$DIMLFAC
 40
1.0
  9
$DIMBLK
  1
_ARROW_FILLED
  9
$DIMALT
 70
0
  9
$DIMALTF
 40
25.4
  9
$DIMTXT
 40
3.5
  9
$DIMTOL
 70
1
  9
$DIMLIM
 70
0
  9
$DIMTFAC
 40
1.0
  9
$DIMTP
 40
0.01
  9
$DIMTM
 40
0.01
  9
$DIMGAP
 40
0.625
  9
$AUNITS
 70
0
  9
$PDMODE
 70
0
  9
$PDSIZE
 40
0.04
  9
$HANDSEED
  5
35E
  9
$TILEMODE
 70
1
  9
$MEASUREMENT
 70
1
  0
ENDSEC
  0
SECTION
  2
CLASSES
  0
ENDSEC
  0
SECTION
  2
TABLES
  0
TABLE
  2
VPORT
  5
8
100
AcDbSymbolTable
 70
2
  0
VPORT
  5
1F4
100
AcDbSymbolTableRecord
100
AcDbViewportTableRecord
  2
*ACTIVE
 70
0
 10
0.0
 20
0.0
 11
1.0
 21
1.0
 12
35.052
 22
75.0
 13
0.0
 23
0.0
 14
1.0
 24
1.0
 15
0.0
 25
0.0
 16
0.0
 26
0.0
 36
1.0
 17
0.0
 27
0.0
 37
0.0
 40
150.0
 41
0.46736
 42
50.0
 43
0.0
 44
0.0
 50
0.0
 51
0.0
 71
0
 72
100
 73
1
 74
1
 75
0
 76
0
 77
0
 78
0
  0
ENDTAB
  0
TABLE
  2
LTYPE
  5
5
100
AcDbSymbolTable
 70
6
  0
LTYPE
  5
14
100
AcDbSymbolTableRecord
100
AcDbLinetypeTableRecord
  2
BYBLOCK
 70
0
  3

 72
65
 73
0
 40
0.0
  0
LTYPE
  5
15
100
AcDbSymbolTableRecord
100
AcDbLinetypeTableRecord
  2
BYLAYER
 70
0
  3

 72
65
 73
0
 40
0.0
  0
LTYPE
  5
16
100
AcDbSymbolTableRecord
100
AcDbLinetypeTableRecord
  2
CONTINUOUS
 70
64
  3
Solid line
 72
65
 73
0
 40
0.0
  0
LTYPE
  5
1F5
100
AcDbSymbolTableRecord
100
AcDbLinetypeTableRecord
  2
CENTER
 70
64
  3
____ _ ____ _ ____ _ ____ _ ____ _ ____ _ ____
 72
65
 73
4
 40
0.6
 49
0.375
 74
0
 49
-0.075
 74
0
 49
0.075
 74
0
 49
-0.075
 74
0
  0
LTYPE
  5
1F6
100
AcDbSymbolTableRecord
100
AcDbLinetypeTableRecord
  2
HIDDEN
 70
64
  3
- - - - - - - - - - - - - - - - - - - -
 72
65
 73
2
 40
0.2
 49
0.1
 74
0
 49
-0.1
 74
0
  0
LTYPE
  5
1F7
100
AcDbSymbolTableRecord
100
AcDbLinetypeTableRecord
  2
PHANTOM
 70
64
  3
_____ _ _ _____ _ _ _____ _ _ _____
 72
65
 73
6
 40
0.8
 49
0.45
 74
0
 49
-0.05
 74
0
 49
0.1
 74
0
 49
-0.05
 74
0
 49
0.1
 74
0
 49
-0.05
 74
0
  0
LTYPE
  5
1F8
100
AcDbSymbolTableRecord
100
AcDbLinetypeTableRecord
  2
DOT
 70
64
  3
. . . . . . . . . . . . . . . . . . . .
 72
65
 73
2
 40
0.2
 49
0.1
 74
0
 49
-0.1
 74
0
  0
LTYPE
  5
1F9
100
AcDbSymbolTableRecord
100
AcDbLinetypeTableRecord
  2
DASHED
 70
64
  3
- - - - - - - - - - - - - - - - - - - -
 72
65
 73
2
 40
0.2
 49
0.1
 74
0
 49
-0.1
 74
0
  0
ENDTAB
  0
TABLE
  2
LAYER
  5
2
100
AcDbSymbolTable
 70
36
  0
LAYER
  5
10
100
AcDbSymbolTableRecord
100
AcDbLayerTableRecord
  2
0
 70
0
 62
7
  6
CONTINUOUS
  0
LAYER
  5
1FA
100
AcDbSymbolTableRecord
100
AcDbLayerTableRecord
  2
DEFAULT_1
 70
0
 62
7
  6
CENTER
  0
LAYER
  5
1FB
100
AcDbSymbolTableRecord
100
AcDbLayerTableRecord
  2
DEFAULT_2
 70
0
 62
8
  6
HIDDEN
  0
LAYER
  5
1FC
100
AcDbSymbolTableRecord
100
AcDbLayerTableRecord
  2
DEFAULT_3
 70
0
 62
7
  6
PHANTOM
  0
LAYER
  5
1FD
100
AcDbSymbolTableRecord
100
AcDbLayerTableRecord
  2
A_ACHSEN
 70
0
 62
7
  6
CONTINUOUS
  0
LAYER
  5
1FE
100
AcDbSymbolTableRecord
100
AcDbLayerTableRecord
  2
A_BASISEBENEN
 70
0
 62
7
  6
CONTINUOUS
  0
LAYER
  5
1FF
100
AcDbSymbolTableRecord
100
AcDbLayerTableRecord
  2
A_BEMASSUNGEN
 70
0
 62
7
  6
CONTINUOUS
  0
LAYER
  5
200
100
AcDbSymbolTableRecord
100
AcDbLayerTableRecord
  2
A_BOHRUNGEN
 70
0
 62
7
  6
CONTINUOUS
  0
LAYER
  5
201
100
AcDbSymbolTableRecord
100
AcDbLayerTableRecord
  2
A_EBENEN
 70
0
 62
7
  6
CONTINUOUS
  0
LAYER
  5
202
100
AcDbSymbolTableRecord
100
AcDbLayerTableRecord
  2
A_FASEN
 70
0
 62
7
  6
CONTINUOUS
  0
LAYER
  5
203
100
AcDbSymbolTableRecord
100
AcDbLayerTableRecord
  2
A_FLAECHEN
 70
0
 62
7
  6
CONTINUOUS
  0
LAYER
  5
204
100
AcDbSymbolTableRecord
100
AcDbLayerTableRecord
  2
A_FL_VERBAENDE
 70
0
 62
7
  6
CONTINUOUS
  0
LAYER
  5
205
100
AcDbSymbolTableRecord
100
AcDbLayerTableRecord
  2
A_KURVEN
 70
0
 62
7
  6
CONTINUOUS
  0
LAYER
  5
206
100
AcDbSymbolTableRecord
100
AcDbLayerTableRecord
  2
A_NOTIZEN_SYMB
 70
0
 62
7
  6
CONTINUOUS
  0
LAYER
  5
207
100
AcDbSymbolTableRecord
100
AcDbLayerTableRecord
  2
A_PUNKTE
 70
0
 62
7
  6
CONTINUOUS
  0
LAYER
  5
208
100
AcDbSymbolTableRecord
100
AcDbLayerTableRecord
  2
A_RUNDUNGEN
 70
0
 62
7
  6
CONTINUOUS
  0
LAYER
  5
209
100
AcDbSymbolTableRecord
100
AcDbLayerTableRecord
  2
BASISEBENEN
 70
0
 62
7
  6
CONTINUOUS
  0
LAYER
  5
20A
100
AcDbSymbolTableRecord
100
AcDbLayerTableRecord
  2
GRAVUR
 70
0
 62
7
  6
CONTINUOUS
  0
LAYER
  5
20B
100
AcDbSymbolTableRecord
100
AcDbLayerTableRecord
  2
SCHRIFTZUG_DREHMOMENT
 70
0
 62
7
  6
CONTINUOUS
  0
LAYER
  5
20C
100
AcDbSymbolTableRecord
100
AcDbLayerTableRecord
  2
XSEC_DATUMS
 70
0
 62
7
  6
CONTINUOUS
  0
ENDTAB
  0
TABLE
  2
STYLE
  5
3
100
AcDbSymbolTable
 70
1
  0
STYLE
  5
11
100
AcDbSymbolTableRecord
100
AcDbTextStyleTableRecord
  2
STANDARD
 70
0
 40
0.0
 41
1.0
 50
0.0
 71
0
 42
0.2
  3
txt
  4

  0
STYLE
  5
20D
100
AcDbSymbolTableRecord
100
AcDbTextStyleTableRecord
  2
TEXTSTYLE_1
 70
0
 40
0.0
 41
0.8
 50
0.0
 71
0
 42
0.2
  3
gdt
  4

  0
ENDTAB
  0
TABLE
  2
VIEW
  5
6
100
AcDbSymbolTable
 70
0
  0
ENDTAB
  0
TABLE
  2
UCS
  5
7
100
AcDbSymbolTable
 70
0
  0
ENDTAB
  0
TABLE
  2
APPID
  5
9
100
AcDbSymbolTable
 70
1
  0
APPID
  5
20E
100
AcDbSymbolTableRecord
100
AcDbRegAppTableRecord
  2
ACAD
 70
0
  0
ENDTAB
  0
TABLE
  2
BLOCK_RECORD
  5
1
100
AcDbSymbolTable
 70
0
  0
BLOCK_RECORD
  5
1F
100
AcDbSymbolTableRecord
100
AcDbBlockTableRecord
  2
*MODEL_SPACE
  0
BLOCK_RECORD
  5
1B
100
AcDbSymbolTableRecord
100
AcDbBlockTableRecord
  2
*PAPER_SPACE
  0
ENDTAB
  0
TABLE
  2
DIMSTYLE
  5
A
100
AcDbSymbolTable
 70
1
  0
DIMSTYLE
105
20F
100
AcDbSymbolTableRecord
100
AcDbDimStyleTableRecord
  2
STANDARD
 70
0
  3

  4

  5
_ARROW_FILLED
  6
_ARROW_FILLED
  7
_ARROW_FILLED
 40
1.0
 41
3.5
 42
0.0
 43
0.38
 44
2.0
 45
0.0
 46
0.0
 47
0.01
 48
0.01
140
3.5
141
0.09
142
0.0
143
25.4
144
1.0
145
0.0
146
1.0
147
0.625
 71
1.0
 72
0.0
 73
0
 74
0
 75
0
 76
0
 77
1
 78
8
170
0
171
1
172
0
173
0
174
0
175
0
176
0
177
0
178
5
270
2
271
2
272
2
273
2
274
2
275
0
280
0
281
0
282
0
283
1
284
8
285
0
286
0
287
3
288
0
340
11
  0
ENDTAB
  0
ENDSEC
  0
SECTION
  2
BLOCKS
  0
BLOCK
  5
20
100
AcDbEntity
  8
0
100
AcDbBlockBegin
  2
*MODEL_SPACE
 70
0
 10
0.0
 20
0.0
 30
0.0
  3
*MODEL_SPACE
  1

  0
ENDBLK
  5
21
100
AcDbEntity
  8
0
100
AcDbBlockEnd
  0
BLOCK
  5
1C
100
AcDbEntity
  8
0
100
AcDbBlockBegin
  2
*PAPER_SPACE
 70
0
 10
0.0
 20
0.0
 30
0.0
  3
*PAPER_SPACE
  1

  0
ENDBLK
  5
1D
100
AcDbEntity
  8
0
100
AcDbBlockEnd
  0
ENDSEC
  0
SECTION
  2
ENTITIES
  0
LINE
  5
210
100
AcDbEntity
  8
0
100
AcDbLine
 62
7
  6
CONTINUOUS
 10
38.5107930831
 20
2.8168129152
 11
31.5107930831
 21
2.8168129152
  0
LINE
  5
211
100
AcDbEntity
  8
A_RUNDUNGEN
100
AcDbLine
 62
8
  6
HIDDEN
 10
11.1036400816
 20
129.5099508223
 11
11.3427878812
 21
129.7511947395
  0
LINE
  5
212
100
AcDbEntity
  8
0
100
AcDbLine
 62
7
  6
CONTINUOUS
 10
31.5107930831
 20
2.8168129152
 11
31.0107930831
 21
3.3168129152
  0
LINE
  5
213
100
AcDbEntity
  8
A_RUNDUNGEN
100
AcDbLine
 62
8
  6
HIDDEN
 10
11.3753193449
 20
121.1591618789
 11
11.0990628693
 21
120.8730899239
  0
LINE
  5
214
100
AcDbEntity
  8
A_RUNDUNGEN
100
AcDbLine
 62
8
  6
HIDDEN
 10
11.1051793788
 20
113.5362969535
 11
11.31228616
 21
113.7434037347
  0
LINE
  5
215
100
AcDbEntity
  8
A_RUNDUNGEN
100
AcDbLine
 62
8
  6
HIDDEN
 10
37.4862600749
 20
130.0228192139
 11
37.1311864255
 21
129.6646333631
  0
LINE
  5
216
100
AcDbEntity
  8
A_FASEN
100
AcDbLine
 62
8
  6
HIDDEN
 10
25.8587327575
 20
119.0398503321
 11
25.3587327596
 21
118.5398503343
  0
LINE
  5
217
100
AcDbEntity
  8
A_RUNDUNGEN
100
AcDbLine
 62
8
  6
HIDDEN
 10
33.0685704118
 20
116.3200547414
 11
18.2602630536
 21
109.542729258
  0
LINE
  5
218
100
AcDbEntity
  8
A_RUNDUNGEN
100
AcDbLine
 62
8
  6
HIDDEN
 10
33.8162293073
 20
113.4939227654
 11
24.4926026648
 21
110.1375227676
  0
LINE
  5
219
100
AcDbEntity
  8
A_RUNDUNGEN
100
AcDbLine
 62
8
  6
HIDDEN
 10
21.0381176209
 20
104.233962517
 11
33.9022775849
 21
111.8570181064
  0
LINE
  5
21A
100
AcDbEntity
  8
0
100
AcDbLine
 62
7
  6
CONTINUOUS
 10
6.9587327694
 20
148.1648503441
 11
6.9587327694
 21
98.1648503441
  0
LINE
  5
21B
100
AcDbEntity
  8
A_RUNDUNGEN
100
AcDbLine
 62
8
  6
HIDDEN
 10
26.6711975635
 20
104.5492264357
 11
34.5232649077
 21
107.8496577854
  0
LINE
  5
21C
100
AcDbEntity
  8
DEFAULT_2
100
AcDbLine
 62
8
  6
HIDDEN
 10
9.9587327694
 20
130.1648503441
 11
9.9587327694
 21
102.1648503441
  0
LINE
  5
21D
100
AcDbEntity
  8
DEFAULT_2
100
AcDbLine
 62
8
  6
HIDDEN
 10
10.9587327694
 20
118.7148503441
 11
10.9587327694
 21
113.7148503441
  0
LINE
  5
21E
100
AcDbEntity
  8
A_RUNDUNGEN
100
AcDbLine
 62
8
  6
HIDDEN
 10
10.9587327694
 20
129.1579434601
 11
10.9587327694
 21
103.2717572281
  0
LINE
  5
21F
100
AcDbEntity
  8
A_RUNDUNGEN
100
AcDbLine
 62
8
  6
HIDDEN
 10
11.8587327694
 20
128.4674615079
 11
11.8587327694
 21
103.9122391803
  0
LINE
  5
220
100
AcDbEntity
  8
A_RUNDUNGEN
100
AcDbLine
 62
8
  6
HIDDEN
 10
21.9587327694
 20
125.6542693411
 11
21.9676246952
 21
125.748242202
  0
LINE
  5
221
100
AcDbEntity
  8
A_RUNDUNGEN
100
AcDbLine
 62
8
  6
HIDDEN
 10
21.9587327592
 20
125.6544564225
 11
21.969287337
 21
125.7566971655
  0
LINE
  5
222
100
AcDbEntity
  8
A_RUNDUNGEN
100
AcDbLine
 62
7
  6
CONTINUOUS
 10
37.3043235122
 20
93.4991247883
 11
31.4410114501
 21
91.6168129152
  0
LINE
  5
223
100
AcDbEntity
  8
A_RUNDUNGEN
100
AcDbLine
 62
8
  6
HIDDEN
 10
31.4410114501
 20
91.6168129152
 11
30.9937878826
 21
91.4732397568
  0
LINE
  5
224
100
AcDbEntity
  8
A_ACHSEN
100
AcDbLine
 62
7
  6
CENTER
 10
19.5087327694
 20
106.6830208311
 11
19.5087327694
 21
103.8147503441
  0
LINE
  5
225
100
AcDbEntity
  8
A_ACHSEN
100
AcDbLine
 62
7
  6
CONTINUOUS
 10
19.5087327694
 20
106.6830208311
 11
19.5087327694
 21
107.2065618646
  0
LINE
  5
226
100
AcDbEntity
  8
A_ACHSEN
100
AcDbLine
 62
7
  6
CENTER
 10
19.5087327694
 20
107.2065618646
 11
19.5087327694
 21
109.8149503441
  0
LINE
  5
227
100
AcDbEntity
  8
A_RUNDUNGEN
100
AcDbLine
 62
8
  6
HIDDEN
 10
21.9587327694
 20
125.6542562049
 11
21.9587327694
 21
120.0724001785
  0
LINE
  5
228
100
AcDbEntity
  8
A_RUNDUNGEN
100
AcDbLine
 62
8
  6
HIDDEN
 10
21.9587327694
 20
112.357166394
 11
21.9587327694
 21
106.7756038379
  0
LWPOLYLINE
  5
229
100
AcDbEntity
  8
A_RUNDUNGEN
100
AcDbPolyline
 62
7
  6
CONTINUOUS
 90
6
 70
0
 10
46.799051931
 20
97.1820098281
 10
46.8477006641
 20
97.2073531153
 10
46.8919963317
 20
97.2451581986
 10
46.9279709765
 20
97.2950806009
 10
46.9515292196
 20
97.3556653999
 10
46.9587327693
 20
97.4152654579
  0
LINE
  5
22A
100
AcDbEntity
  8
A_RUNDUNGEN
100
AcDbLine
 62
8
  6
HIDDEN
 10
21.9587327592
 20
106.7752442653
 11
21.9692873372
 21
106.6730035215
  0
LINE
  5
22B
100
AcDbEntity
  8
A_RUNDUNGEN
100
AcDbLine
 62
8
  6
HIDDEN
 10
21.9587327694
 20
106.7754313473
 11
21.9676246948
 21
106.6814584883
  0
LINE
  5
22C
100
AcDbEntity
  8
A_RUNDUNGEN
100
AcDbLine
 62
7
  6
CONTINUOUS
 10
24.4107930831
 20
75.6168129152
 11
24.4107930831
 21
92.6168129152
  0
LINE
  5
22D
100
AcDbEntity
  8
A_FASEN
100
AcDbLine
 62
8
  6
HIDDEN
 10
25.3587327694
 20
118.5398503441
 11
25.3587327694
 21
113.8898503441
  0
LINE
  5
22E
100
AcDbEntity
  8
A_ACHSEN
100
AcDbLine
 62
7
  6
CENTER
 10
25.5087327694
 20
106.5848430459
 11
25.5087327694
 21
103.1096219446
  0
LINE
  5
22F
100
AcDbEntity
  8
A_ACHSEN
100
AcDbLine
 62
7
  6
CENTER
 10
25.5087327694
 20
106.8501746353
 11
25.5087327694
 21
111.5200787436
  0
LINE
  5
230
100
AcDbEntity
  8
DEFAULT_2
100
AcDbLine
 62
8
  6
HIDDEN
 10
25.5337327694
 20
118.7148503441
 11
25.5337327694
 21
113.7148503441
  0
LINE
  5
231
100
AcDbEntity
  8
A_RUNDUNGEN
100
AcDbLine
 62
8
  6
HIDDEN
 10
25.8587327694
 20
122.4674615079
 11
25.8587327694
 21
109.9622391803
  0
LINE
  5
232
100
AcDbEntity
  8
A_FASEN
100
AcDbLine
 62
8
  6
HIDDEN
 10
25.8587327694
 20
119.0398503441
 11
25.8587327694
 21
113.3898503441
  0
LINE
  5
233
100
AcDbEntity
  8
A_RUNDUNGEN
100
AcDbLine
 62
8
  6
HIDDEN
 10
25.8587327694
 20
103.3415458456
 11
25.8587327694
 21
102.4358969528
  0
LINE
  5
234
100
AcDbEntity
  8
A_RUNDUNGEN
100
AcDbLine
 62
7
  6
CONTINUOUS
 10
26.4107930831
 20
73.6168129152
 11
26.4107930831
 21
94.6168129152
  0
LINE
  5
235
100
AcDbEntity
  8
A_ACHSEN
100
AcDbLine
 62
8
  6
HIDDEN
 10
26.9587327694
 20
125.1648503441
 11
26.9587327694
 21
122.1648503441
  0
LINE
  5
236
100
AcDbEntity
  8
A_ACHSEN
100
AcDbLine
 62
8
  6
HIDDEN
 10
26.9587327694
 20
110.1648503441
 11
26.9587327694
 21
107.1648503441
  0
LINE
  5
237
100
AcDbEntity
  8
DEFAULT_2
100
AcDbLine
 62
8
  6
HIDDEN
 10
28.4107930831
 20
73.6168129152
 11
28.4107930831
 21
80.6168129152
  0
LINE
  5
238
100
AcDbEntity
  8
A_RUNDUNGEN
100
AcDbLine
 62
7
  6
CONTINUOUS
 10
28.4107930831
 20
73.6168129152
 11
28.4107930831
 21
82.6168129152
  0
LINE
  5
239
100
AcDbEntity
  8
A_RUNDUNGEN
100
AcDbLine
 62
8
  6
HIDDEN
 10
40.2429994863
 20
99.2969408652
 11
38.8646367701
 21
97.1648503441
  0
LINE
  5
23A
100
AcDbEntity
  8
A_RUNDUNGEN
100
AcDbLine
 62
7
  6
CONTINUOUS
 10
38.8646367701
 20
97.1648503441
 11
36.2827925133
 21
93.1711804614
  0
LINE
  5
23B
100
AcDbEntity
  8
A_RUNDUNGEN
100
AcDbLine
 62
8
  6
HIDDEN
 10
36.2827925133
 20
93.1711804614
 11
34.3914187674
 21
90.2455499375
  0
LINE
  5
23C
100
AcDbEntity
  8
0
100
AcDbLine
 62
7
  6
CONTINUOUS
 10
56.0049645428
 20
110.6648503441
 11
58.9587327694
 21
114.0405854602
  0
LINE
  5
23D
100
AcDbEntity
  8
0
100
AcDbLine
 62
7
  6
CONTINUOUS
 10
56.4587327694
 20
109.6648503441
 11
59.9587327694
 21
113.6648503441
  0
LINE
  5
23E
100
AcDbEntity
  8
0
100
AcDbLine
 62
7
  6
CONTINUOUS
 10
31.5107930831
 20
82.8168129152
 11
31.0107930831
 21
82.3168129152
  0
LINE
  5
23F
100
AcDbEntity
  8
A_RUNDUNGEN
100
AcDbLine
 62
8
  6
HIDDEN
 10
33.535839035
 20
86.0950764261
 11
35.4164795596
 21
87.3069876545
  0
LINE
  5
240
100
AcDbEntity
  8
A_RUNDUNGEN
100
AcDbLine
 62
7
  6
CONTINUOUS
 10
35.4164795596
 20
87.3069876545
 11
38.7182733625
 21
89.4347100613
  0
LINE
  5
241
100
AcDbEntity
  8
A_RUNDUNGEN
100
AcDbLine
 62
8
  6
HIDDEN
 10
38.7182733625
 20
89.4347100613
 11
41.2999428316
 21
91.0983742101
  0
LINE
  5
242
100
AcDbEntity
  8
0
100
AcDbLine
 62
7
  6
CONTINUOUS
 10
31.0107930831
 20
3.3168129152
 11
31.0107930831
 21
82.3168129152
  0
LINE
  5
243
100
AcDbEntity
  8
A_RUNDUNGEN
100
AcDbLine
 62
7
  6
CONTINUOUS
 10
31.7587327694
 20
97.7473384391
 11
31.7587327694
 21
97.9148503441
  0
LINE
  5
244
100
AcDbEntity
  8
A_ACHSEN
100
AcDbLine
 62
7
  6
CONTINUOUS
 10
31.9107891413
 20
89.0612688443
 11
31.9107891413
 21
88.1723799554
  0
LINE
  5
245
100
AcDbEntity
  8
A_ACHSEN
100
AcDbLine
 62
7
  6
CENTER
 10
31.9107891413
 20
86.3946021776
 11
31.9107891413
 21
83.4168243999
  0
LINE
  5
246
100
AcDbEntity
  8
A_ACHSEN
100
AcDbLine
 62
7
  6
CENTER
 10
31.9107891413
 20
90.8390466221
 11
31.9107891413
 21
93.8168243999
  0
LINE
  5
247
100
AcDbEntity
  8
DEFAULT_2
100
AcDbLine
 62
8
  6
HIDDEN
 10
32.4587327694
 20
102.1648503441
 11
32.4587327694
 21
98.1648503441
  0
LINE
  5
248
100
AcDbEntity
  8
0
100
AcDbLine
 62
7
  6
CONTINUOUS
 10
32.6350580009
 20
87.0237214775
 11
32.6350580009
 21
90.2099043529
  0
LINE
  5
249
100
AcDbEntity
  8
0
100
AcDbLine
 62
7
  6
CONTINUOUS
 10
32.7607930831
 20
83.3668129152
 11
32.7607930831
 21
82.8168129152
  0
LINE
  5
24A
100
AcDbEntity
  8
DEFAULT_2
100
AcDbLine
 62
8
  6
HIDDEN
 10
32.7607930831
 20
82.8168129152
 11
32.7607930831
 21
82.5668129152
  0
LINE
  5
24B
100
AcDbEntity
  8
0
100
AcDbLine
 62
7
  6
CONTINUOUS
 10
33.4107930831
 20
88.6901931993
 11
33.4107930831
 21
87.7469059291
  0
LINE
  5
24C
100
AcDbEntity
  8
A_RUNDUNGEN
100
AcDbLine
 62
7
  6
CONTINUOUS
 10
41.1387201522
 20
82.8661393675
 11
41.9525154356
 21
83.4359649595
  0
LINE
  5
24D
100
AcDbEntity
  8
A_RUNDUNGEN
100
AcDbLine
 62
7
  6
CONTINUOUS
 10
40.2250059807
 20
82.4440914527
 11
41.8593033286
 21
83.5809939555
  0
LINE
  5
24E
100
AcDbEntity
  8
0
100
AcDbLine
 62
7
  6
CONTINUOUS
 10
31.0107930831
 20
73.6168129152
 11
28.4107930831
 21
73.6168129152
  0
LINE
  5
24F
100
AcDbEntity
  8
A_RUNDUNGEN
100
AcDbLine
 62
7
  6
CONTINUOUS
 10
26.4107930831
 20
73.6168129152
 11
28.4107930831
 21
73.6168129152
  0
LINE
  5
250
100
AcDbEntity
  8
A_RUNDUNGEN
100
AcDbLine
 62
7
  6
CONTINUOUS
 10
39.9107930831
 20
73.6168129152
 11
48.4107930831
 21
73.6168129152
  0
LINE
  5
251
100
AcDbEntity
  8
0
100
AcDbLine
 62
7
  6
CONTINUOUS
 10
40.2107930831
 20
75.1168129152
 11
40.7607930831
 21
75.1168129152
  0
LINE
  5
252
100
AcDbEntity
  8
0
100
AcDbLine
 62
7
  6
CONTINUOUS
 10
36.4107930831
 20
86.682639164
 11
36.4107930831
 21
86.9397619321
  0
LINE
  5
253
100
AcDbEntity
  8
A_ACHSEN
100
AcDbLine
 62
7
  6
CENTER
 10
36.9107893838
 20
84.1834811336
 11
36.9107893838
 21
93.050152427
  0
LINE
  5
254
100
AcDbEntity
  8
DEFAULT_2
100
AcDbLine
 62
8
  6
HIDDEN
 10
36.9587327694
 20
130.1648503441
 11
36.9587327694
 21
102.1648503441
  0
LINE
  5
255
100
AcDbEntity
  8
A_ACHSEN
100
AcDbLine
 62
8
  6
HIDDEN
 10
36.9587327694
 20
107.1648503441
 11
36.9587327694
 21
110.1648503441
  0
LINE
  5
256
100
AcDbEntity
  8
A_ACHSEN
100
AcDbLine
 62
8
  6
HIDDEN
 10
36.9587327694
 20
122.1648503441
 11
36.9587327694
 21
125.1648503441
  0
LINE
  5
257
100
AcDbEntity
  8
A_RUNDUNGEN
100
AcDbLine
 62
8
  6
HIDDEN
 10
37.0587327694
 20
129.488629682
 11
37.0587327694
 21
102.9410710062
  0
LINE
  5
258
100
AcDbEntity
  8
A_RUNDUNGEN
100
AcDbLine
 62
8
  6
HIDDEN
 10
37.3087327694
 20
127.0648503441
 11
37.3087327694
 21
120.3648503441
  0
LINE
  5
259
100
AcDbEntity
  8
A_RUNDUNGEN
100
AcDbLine
 62
8
  6
HIDDEN
 10
37.3087327694
 20
112.0648503441
 11
37.3087327694
 21
105.3648503441
  0
LINE
  5
25A
100
AcDbEntity
  8
DEFAULT_2
100
AcDbLine
 62
8
  6
HIDDEN
 10
37.8587327694
 20
109.4020179168
 11
37.8587327694
 21
109.5148503441
  0
LINE
  5
25B
100
AcDbEntity
  8
DEFAULT_2
100
AcDbLine
 62
8
  6
HIDDEN
 10
37.8587327694
 20
122.9148503441
 11
37.8587327694
 21
123.0276827714
  0
LINE
  5
25C
100
AcDbEntity
  8
0
100
AcDbLine
 62
7
  6
CONTINUOUS
 10
39.0107930831
 20
3.3168129152
 11
39.0107930831
 21
82.3168129152
  0
LINE
  5
25D
100
AcDbEntity
  8
A_RUNDUNGEN
100
AcDbLine
 62
8
  6
HIDDEN
 10
39.0587327694
 20
118.58170743
 11
39.0587327694
 21
113.8479932582
  0
LINE
  5
25E
100
AcDbEntity
  8
DEFAULT_2
100
AcDbLine
 62
8
  6
HIDDEN
 10
39.0587327694
 20
118.2148503441
 11
39.0587327694
 21
114.2148503441
  0
LINE
  5
25F
100
AcDbEntity
  8
A_RUNDUNGEN
100
AcDbLine
 62
8
  6
HIDDEN
 10
38.4550692342
 20
102.3259703898
 11
38.5501575534
 21
107.7735765473
  0
LINE
  5
260
100
AcDbEntity
  8
A_ACHSEN
100
AcDbLine
 62
8
  6
HIDDEN
 10
45.4107930831
 20
83.6168129152
 11
44.4107930831
 21
82.6168129152
  0
LINE
  5
261
100
AcDbEntity
  8
A_RUNDUNGEN
100
AcDbLine
 62
7
  6
CONTINUOUS
 10
43.7843695194
 20
77.5482279214
 11
41.482866014
 21
75.9366978177
  0
LINE
  5
262
100
AcDbEntity
  8
A_RUNDUNGEN
100
AcDbLine
 62
7
  6
CONTINUOUS
 10
43.7818575713
 20
77.2184229939
 11
39.9107930831
 21
74.5255085674
  0
LINE
  5
263
100
AcDbEntity
  8
A_ACHSEN
100
AcDbLine
 62
8
  6
HIDDEN
 10
51.9107930831
 20
77.6168129152
 11
45.4107930831
 21
77.6168129152
  0
LINE
  5
264
100
AcDbEntity
  8
A_ACHSEN
100
AcDbLine
 62
8
  6
HIDDEN
 10
52.4107930831
 20
78.1168129152
 11
44.2107930831
 21
78.1168129152
  0
LINE
  5
265
100
AcDbEntity
  8
DEFAULT_2
100
AcDbLine
 62
8
  6
HIDDEN
 10
52.4107930831
 20
78.3168129152
 11
44.7107930831
 21
78.3168129152
  0
LINE
  5
266
100
AcDbEntity
  8
DEFAULT_2
100
AcDbLine
 62
8
  6
HIDDEN
 10
52.4107930831
 20
79.1168129152
 11
49.3441405514
 21
79.1168129152
  0
LINE
  5
267
100
AcDbEntity
  8
DEFAULT_2
100
AcDbLine
 62
8
  6
HIDDEN
 10
52.4107930831
 20
80.6168129152
 11
49.4777803812
 21
80.6168129152
  0
LINE
  5
268
100
AcDbEntity
  8
0
100
AcDbLine
 62
7
  6
CONTINUOUS
 10
31.0107930831
 20
80.6168129152
 11
28.4107930831
 21
80.6168129152
  0
LINE
  5
269
100
AcDbEntity
  8
A_ACHSEN
100
AcDbLine
 62
7
  6
CENTER
 10
41.4107930831
 20
80.6168129152
 11
55.4107930831
 21
80.6168129152
  0
LINE
  5
26A
100
AcDbEntity
  8
A_RUNDUNGEN
100
AcDbLine
 62
8
  6
HIDDEN
 10
11.1036400816
 20
102.9197498659
 11
11.3427878812
 21
102.6785059487
  0
LINE
  5
26B
100
AcDbEntity
  8
A_RUNDUNGEN
100
AcDbLine
 62
8
  6
HIDDEN
 10
42.0629458854
 20
102.2944849273
 11
41.9673079854
 21
107.7735765473
  0
LINE
  5
26C
100
AcDbEntity
  8
A_RUNDUNGEN
100
AcDbLine
 62
8
  6
HIDDEN
 10
39.4587327694
 20
130.1124891374
 11
39.4587327694
 21
122.4366900875
  0
LINE
  5
26D
100
AcDbEntity
  8
0
100
AcDbLine
 62
7
  6
CONTINUOUS
 10
39.9107930831
 20
73.6168129152
 11
39.9107930831
 21
74.5255085674
  0
LINE
  5
26E
100
AcDbEntity
  8
0
100
AcDbLine
 62
7
  6
CONTINUOUS
 10
40.2107930831
 20
82.4440914527
 11
40.2107930831
 21
75.1168129152
  0
LINE
  5
26F
100
AcDbEntity
  8
A_RUNDUNGEN
100
AcDbLine
 62
8
  6
HIDDEN
 10
40.2587327694
 20
127.9784096907
 11
40.2587327694
 21
119.4512909975
  0
LINE
  5
270
100
AcDbEntity
  8
A_RUNDUNGEN
100
AcDbLine
 62
8
  6
HIDDEN
 10
40.2587327694
 20
112.9784096907
 11
40.2587327694
 21
104.4512909975
  0
LINE
  5
271
100
AcDbEntity
  8
0
100
AcDbLine
 62
7
  6
CONTINUOUS
 10
41.0107930831
 20
76.182443431
 11
41.0107930831
 21
75.2907259587
  0
LINE
  5
272
100
AcDbEntity
  8
A_RUNDUNGEN
100
AcDbLine
 62
7
  6
CONTINUOUS
 10
41.0107930831
 20
76.182443431
 11
41.0107930831
 21
82.6203937542
  0
LINE
  5
273
100
AcDbEntity
  8
A_ACHSEN
100
AcDbLine
 62
8
  6
HIDDEN
 10
43.8587327694
 20
129.0145149224
 11
43.8587327694
 21
126.3648503441
  0
LINE
  5
274
100
AcDbEntity
  8
DEFAULT_2
100
AcDbLine
 62
8
  6
HIDDEN
 10
43.8587327694
 20
128.2148503441
 11
43.8587327694
 21
124.5148503441
  0
LINE
  5
275
100
AcDbEntity
  8
DEFAULT_2
100
AcDbLine
 62
8
  6
HIDDEN
 10
43.8587327694
 20
124.3648503441
 11
43.8587327694
 21
124.5148503441
  0
LINE
  5
276
100
AcDbEntity
  8
DEFAULT_2
100
AcDbLine
 62
8
  6
HIDDEN
 10
43.8587327694
 20
128.2148503441
 11
43.8587327694
 21
128.3648503441
  0
LINE
  5
277
100
AcDbEntity
  8
DEFAULT_2
100
AcDbLine
 62
8
  6
HIDDEN
 10
44.1087327694
 20
118.2148503441
 11
44.1087327694
 21
114.2148503441
  0
LINE
  5
278
100
AcDbEntity
  8
A_RUNDUNGEN
100
AcDbLine
 62
7
  6
CONTINUOUS
 10
44.2107930831
 20
83.6168129152
 11
44.2107930831
 21
78.0393281957
  0
LINE
  5
279
100
AcDbEntity
  8
A_ACHSEN
100
AcDbLine
 62
8
  6
HIDDEN
 10
44.2107930831
 20
78.1168129152
 11
44.2107930831
 21
83.1168129152
  0
LINE
  5
27A
100
AcDbEntity
  8
A_ACHSEN
100
AcDbLine
 62
8
  6
HIDDEN
 10
44.4107930831
 20
78.6168129152
 11
44.4107930831
 21
82.6168129152
  0
LINE
  5
27B
100
AcDbEntity
  8
A_FLAECHEN
100
AcDbLine
 62
8
  6
HIDDEN
 10
48.4777803812
 20
80.6168129152
 11
49.343805785
 21
82.1168129152
  0
LINE
  5
27C
100
AcDbEntity
  8
DEFAULT_2
100
AcDbLine
 62
8
  6
HIDDEN
 10
49.3441405514
 20
82.1168129152
 11
52.4107930831
 21
82.1168129152
  0
LINE
  5
27D
100
AcDbEntity
  8
DEFAULT_2
100
AcDbLine
 62
8
  6
HIDDEN
 10
32.7607930831
 20
82.5668129152
 11
38.7607930831
 21
82.5668129152
  0
LINE
  5
27E
100
AcDbEntity
  8
0
100
AcDbLine
 62
7
  6
CONTINUOUS
 10
38.7607930831
 20
82.5668129152
 11
39.9122973887
 21
82.5668129152
  0
LINE
  5
27F
100
AcDbEntity
  8
DEFAULT_2
100
AcDbLine
 62
8
  6
HIDDEN
 10
39.9122973887
 20
82.5668129152
 11
40.2107930831
 21
82.5668129152
  0
LINE
  5
280
100
AcDbEntity
  8
0
100
AcDbLine
 62
7
  6
CONTINUOUS
 10
40.4014180831
 20
82.5668129152
 11
41.0107930831
 21
82.5668129152
  0
LINE
  5
281
100
AcDbEntity
  8
0
100
AcDbLine
 62
7
  6
CONTINUOUS
 10
38.5107930831
 20
82.8168129152
 11
31.5107930831
 21
82.8168129152
  0
LINE
  5
282
100
AcDbEntity
  8
DEFAULT_2
100
AcDbLine
 62
8
  6
HIDDEN
 10
52.4107930831
 20
82.9168129152
 11
44.7107930831
 21
82.9168129152
  0
LINE
  5
283
100
AcDbEntity
  8
A_ACHSEN
100
AcDbLine
 62
8
  6
HIDDEN
 10
52.4107930831
 20
83.1168129152
 11
44.2107930831
 21
83.1168129152
  0
LINE
  5
284
100
AcDbEntity
  8
DEFAULT_2
100
AcDbLine
 62
8
  6
HIDDEN
 10
40.2107930831
 20
83.3668129152
 11
39.5618201522
 21
83.3668129152
  0
LINE
  5
285
100
AcDbEntity
  8
0
100
AcDbLine
 62
7
  6
CONTINUOUS
 10
39.5618201522
 20
83.3668129152
 11
32.7607930831
 21
83.3668129152
  0
LINE
  5
286
100
AcDbEntity
  8
A_ACHSEN
100
AcDbLine
 62
8
  6
HIDDEN
 10
51.9107930831
 20
83.6168129152
 11
45.4107930831
 21
83.6168129152
  0
LINE
  5
287
100
AcDbEntity
  8
A_RUNDUNGEN
100
AcDbLine
 62
7
  6
CONTINUOUS
 10
38.9107930831
 20
83.6168129152
 11
29.4107930831
 21
83.6168129152
  0
LINE
  5
288
100
AcDbEntity
  8
A_RUNDUNGEN
100
AcDbLine
 62
7
  6
CONTINUOUS
 10
41.9735162263
 20
83.6168129152
 11
44.2107930831
 21
83.6168129152
  0
LINE
  5
289
100
AcDbEntity
  8
0
100
AcDbLine
 62
7
  6
CONTINUOUS
 10
38.5107930831
 20
82.8168129152
 11
39.0107930831
 21
82.3168129152
  0
LINE
  5
28A
100
AcDbEntity
  8
A_ACHSEN
100
AcDbLine
 62
8
  6
HIDDEN
 10
45.4107930831
 20
77.6168129152
 11
44.4107930831
 21
78.6168129152
  0
LINE
  5
28B
100
AcDbEntity
  8
A_RUNDUNGEN
100
AcDbLine
 62
8
  6
HIDDEN
 10
11.0990628693
 20
111.5566107643
 11
11.3753193449
 21
111.2705388093
  0
LINE
  5
28C
100
AcDbEntity
  8
0
100
AcDbLine
 62
7
  6
CONTINUOUS
 10
33.4107930831
 20
88.6901931993
 11
32.6350580009
 21
90.1491386986
  0
LINE
  5
28D
100
AcDbEntity
  8
DEFAULT_2
100
AcDbLine
 62
8
  6
HIDDEN
 10
44.7107930831
 20
82.9168129152
 11
44.7107930831
 21
78.3168129152
  0
LINE
  5
28E
100
AcDbEntity
  8
A_ACHSEN
100
AcDbLine
 62
8
  6
HIDDEN
 10
45.4107930831
 20
83.6168129152
 11
45.4107930831
 21
77.6168129152
  0
LINE
  5
28F
100
AcDbEntity
  8
A_RUNDUNGEN
100
AcDbLine
 62
8
  6
HIDDEN
 10
45.4587327694
 20
130.1648503441
 11
45.4587327694
 21
117.8919274971
  0
LINE
  5
290
100
AcDbEntity
  8
DEFAULT_2
100
AcDbLine
 62
8
  6
HIDDEN
 10
45.4587327694
 20
130.1648503441
 11
45.4587327694
 21
102.3648503441
  0
LINE
  5
291
100
AcDbEntity
  8
A_RUNDUNGEN
100
AcDbLine
 62
8
  6
HIDDEN
 10
45.4587327694
 20
114.5377731911
 11
45.4587327694
 21
112.4648503441
  0
LINE
  5
292
100
AcDbEntity
  8
A_RUNDUNGEN
100
AcDbLine
 62
8
  6
HIDDEN
 10
45.4587327694
 20
108.8648352101
 11
45.4587327694
 21
102.2648503441
  0
LINE
  5
293
100
AcDbEntity
  8
DEFAULT_2
100
AcDbLine
 62
8
  6
HIDDEN
 10
45.4587327694
 20
102.2648503441
 11
45.4587327694
 21
102.3648503441
  0
LINE
  5
294
100
AcDbEntity
  8
A_FASEN
100
AcDbLine
 62
8
  6
HIDDEN
 10
46.9587327694
 20
120.2648503441
 11
46.9587327694
 21
112.2648503441
  0
LINE
  5
295
100
AcDbEntity
  8
0
100
AcDbLine
 62
7
  6
CONTINUOUS
 10
46.9587327694
 20
116.6648503441
 11
46.9587327694
 21
98.1648503441
  0
LINE
  5
296
100
AcDbEntity
  8
A_RUNDUNGEN
100
AcDbLine
 62
7
  6
CONTINUOUS
 10
46.9587327694
 20
97.4152657192
 11
46.9587327694
 21
98.1648503441
  0
LINE
  5
297
100
AcDbEntity
  8
DEFAULT_2
100
AcDbLine
 62
8
  6
HIDDEN
 10
46.9587327694
 20
116.6648503441
 11
46.9587327694
 21
130.1648503441
  0
LINE
  5
298
100
AcDbEntity
  8
0
100
AcDbLine
 62
7
  6
CONTINUOUS
 10
47.9587327694
 20
115.6648503441
 11
47.9587327694
 21
114.0405854602
  0
LINE
  5
299
100
AcDbEntity
  8
DEFAULT_2
100
AcDbLine
 62
8
  6
HIDDEN
 10
52.2622066145
 20
82.1168129152
 11
52.4107930831
 21
82.3488637228
  0
LINE
  5
29A
100
AcDbEntity
  8
A_ACHSEN
100
AcDbLine
 62
8
  6
HIDDEN
 10
52.4107930831
 20
78.1168129152
 11
51.9107930831
 21
77.6168129152
  0
LINE
  5
29B
100
AcDbEntity
  8
A_ACHSEN
100
AcDbLine
 62
7
  6
CENTER
 10
32.4774537371
 20
88.6168167803
 11
41.3441250305
 21
88.6168167803
  0
LINE
  5
29C
100
AcDbEntity
  8
A_ACHSEN
100
AcDbLine
 62
7
  6
CONTINUOUS
 10
32.3552335858
 20
88.6168243999
 11
31.4663446969
 21
88.6168243999
  0
LINE
  5
29D
100
AcDbEntity
  8
A_ACHSEN
100
AcDbLine
 62
7
  6
CENTER
 10
29.6885669191
 20
88.6168243999
 11
26.7107891413
 21
88.6168243999
  0
LINE
  5
29E
100
AcDbEntity
  8
A_RUNDUNGEN
100
AcDbLine
 62
7
  6
CONTINUOUS
 10
26.4107930831
 20
91.6168129152
 11
52.4107930831
 21
91.6168129152
  0
LINE
  5
29F
100
AcDbEntity
  8
A_RUNDUNGEN
100
AcDbLine
 62
8
  6
HIDDEN
 10
11.1051793788
 20
118.8934037347
 11
11.31228616
 21
118.6862969535
  0
LINE
  5
2A0
100
AcDbEntity
  8
A_FLAECHEN
100
AcDbLine
 62
8
  6
HIDDEN
 10
48.4777803812
 20
80.6168129152
 11
49.343805785
 21
79.1168129152
  0
LINE
  5
2A1
100
AcDbEntity
  8
A_RUNDUNGEN
100
AcDbLine
 62
8
  6
HIDDEN
 10
38.5421450588
 20
106.0010351358
 11
40.5366803426
 21
99.7881524811
  0
LINE
  5
2A2
100
AcDbEntity
  8
A_ACHSEN
100
AcDbLine
 62
8
  6
HIDDEN
 10
51.9107930831
 20
83.6168129152
 11
51.9107930831
 21
77.6168129152
  0
LINE
  5
2A3
100
AcDbEntity
  8
DEFAULT_2
100
AcDbLine
 62
8
  6
HIDDEN
 10
52.4107930831
 20
85.1168129152
 11
52.4107930831
 21
77.6168129152
  0
LINE
  5
2A4
100
AcDbEntity
  8
0
100
AcDbLine
 62
7
  6
CONTINUOUS
 10
52.4107930831
 20
77.6168129152
 11
52.4107930831
 21
77.1168129152
  0
LINE
  5
2A5
100
AcDbEntity
  8
A_ACHSEN
100
AcDbLine
 62
8
  6
HIDDEN
 10
52.4107930831
 20
78.1168129152
 11
52.4107930831
 21
83.1168129152
  0
LINE
  5
2A6
100
AcDbEntity
  8
A_RUNDUNGEN
100
AcDbLine
 62
7
  6
CONTINUOUS
 10
52.4107930831
 20
77.6168129152
 11
52.4107930831
 21
91.6168129152
  0
LWPOLYLINE
  5
2A7
100
AcDbEntity
  8
A_RUNDUNGEN
100
AcDbPolyline
 62
7
  6
CONTINUOUS
 90
3
 70
0
 10
46.7066329988
 20
97.1648503498
 10
46.7500437675
 20
97.168477426
 10
46.799051931
 20
97.1820098281
  0
LINE
  5
2A8
100
AcDbEntity
  8
A_RUNDUNGEN
100
AcDbLine
 62
7
  6
CONTINUOUS
 10
32.7857209594
 20
97.2362141233
 11
31.9325388376
 21
97.5092324023
  0
LINE
  5
2A9
100
AcDbEntity
  8
A_ACHSEN
100
AcDbLine
 62
8
  6
HIDDEN
 10
52.4107930831
 20
83.1168129152
 11
51.9107930831
 21
83.6168129152
  0
LINE
  5
2AA
100
AcDbEntity
  8
DEFAULT_2
100
AcDbLine
 62
8
  6
HIDDEN
 10
52.2622066145
 20
79.1168129152
 11
52.4107930831
 21
78.8847621076
  0
LINE
  5
2AB
100
AcDbEntity
  8
A_RUNDUNGEN
100
AcDbLine
 62
8
  6
HIDDEN
 10
36.6656955088
 20
111.1157442632
 11
40.4036185163
 21
104.4597912309
  0
LINE
  5
2AC
100
AcDbEntity
  8
A_RUNDUNGEN
100
AcDbLine
 62
8
  6
HIDDEN
 10
44.5835840671
 20
100.2683721634
 11
41.5613202305
 21
109.6825804358
  0
LINE
  5
2AD
100
AcDbEntity
  8
0
100
AcDbLine
 62
7
  6
CONTINUOUS
 10
58.9587327694
 20
114.0405854602
 11
58.9587327694
 21
115.6648503441
  0
LINE
  5
2AE
100
AcDbEntity
  8
A_RUNDUNGEN
100
AcDbLine
 62
7
  6
CONTINUOUS
 10
46.7066472383
 20
97.1648503441
 11
33.2428845501
 21
97.1648503441
  0
LINE
  5
2AF
100
AcDbEntity
  8
0
100
AcDbLine
 62
7
  6
CONTINUOUS
 10
6.9587327694
 20
98.1648503441
 11
46.9587327694
 21
98.1648503441
  0
LINE
  5
2B0
100
AcDbEntity
  8
A_FASEN
100
AcDbLine
 62
8
  6
HIDDEN
 10
25.8587327575
 20
113.3898503561
 11
25.3587327596
 21
113.8898503539
  0
LINE
  5
2B1
100
AcDbEntity
  8
A_RUNDUNGEN
100
AcDbLine
 62
8
  6
HIDDEN
 10
37.1311864255
 20
102.765067325
 11
37.4862600749
 21
102.4068814743
  0
LINE
  5
2B2
100
AcDbEntity
  8
A_RUNDUNGEN
100
AcDbLine
 62
8
  6
HIDDEN
 10
43.8995514122
 20
106.4036890957
 11
39.5089233288
 21
114.2218849887
  0
LINE
  5
2B3
100
AcDbEntity
  8
0
100
AcDbLine
 62
7
  6
CONTINUOUS
 10
59.9587327694
 20
113.6648503441
 11
59.9587327694
 21
148.1648503441
  0
LINE
  5
2B4
100
AcDbEntity
  8
A_RUNDUNGEN
100
AcDbLine
 62
8
  6
HIDDEN
 10
39.7500065662
 20
106.1059704952
 11
37.5543696678
 21
106.0676455106
  0
LINE
  5
2B5
100
AcDbEntity
  8
DEFAULT_2
100
AcDbLine
 62
8
  6
HIDDEN
 10
46.9587327694
 20
102.1648503441
 11
9.9587327694
 21
102.1648503441
  0
LINE
  5
2B6
100
AcDbEntity
  8
DEFAULT_2
100
AcDbLine
 62
8
  6
HIDDEN
 10
45.4587327694
 20
102.3648503441
 11
46.9587327694
 21
102.3648503441
  0
LINE
  5
2B7
100
AcDbEntity
  8
A_ACHSEN
100
AcDbLine
 62
7
  6
CENTER
 10
19.0731474155
 20
106.8148503441
 11
16.5086327694
 21
106.8148503441
  0
LINE
  5
2B8
100
AcDbEntity
  8
A_ACHSEN
100
AcDbLine
 62
7
  6
CONTINUOUS
 10
19.0731474155
 20
106.8148503441
 11
19.9332505419
 21
106.8148503441
  0
LINE
  5
2B9
100
AcDbEntity
  8
A_ACHSEN
100
AcDbLine
 62
7
  6
CENTER
 10
19.9332505419
 20
106.8148503441
 11
22.5088327694
 21
106.8148503441
  0
LINE
  5
2BA
100
AcDbEntity
  8
A_RUNDUNGEN
100
AcDbLine
 62
8
  6
HIDDEN
 10
25.8587327694
 20
103.3415458456
 11
12.3561147875
 21
103.4122460341
  0
LINE
  5
2BB
100
AcDbEntity
  8
A_RUNDUNGEN
100
AcDbLine
 62
8
  6
HIDDEN
 10
45.4587327694
 20
102.2648503441
 11
11.6233714173
 21
102.5601270693
  0
LINE
  5
2BC
100
AcDbEntity
  8
A_RUNDUNGEN
100
AcDbLine
 62
8
  6
HIDDEN
 10
45.4587327694
 20
104.1148503441
 11
40.5043696678
 21
104.2013290737
  0
LINE
  5
2BD
100
AcDbEntity
  8
A_ACHSEN
100
AcDbLine
 62
8
  6
HIDDEN
 10
36.9587327694
 20
107.1648503441
 11
26.9587327694
 21
107.1648503441
  0
LINE
  5
2BE
100
AcDbEntity
  8
A_ACHSEN
100
AcDbLine
 62
7
  6
CONTINUOUS
 10
25.327700142
 20
107.3148503441
 11
25.064288325
 21
107.3148503441
  0
LINE
  5
2BF
100
AcDbEntity
  8
A_ACHSEN
100
AcDbLine
 62
7
  6
CENTER
 10
24.7528150317
 20
107.3148503441
 11
21.3035043699
 21
107.3148503441
  0
LINE
  5
2C0
100
AcDbEntity
  8
A_ACHSEN
100
AcDbLine
 62
7
  6
CENTER
 10
25.327700142
 20
107.3148503441
 11
29.7139611689
 21
107.3148503441
  0
LINE
  5
2C1
100
AcDbEntity
  8
A_RUNDUNGEN
100
AcDbLine
 62
8
  6
HIDDEN
 10
41.4673841379
 20
108.2648503441
 11
39.050081401
 21
108.2648503441
  0
LINE
  5
2C2
100
AcDbEntity
  8
DEFAULT_2
100
AcDbLine
 62
8
  6
HIDDEN
 10
37.8587327694
 20
109.5148503441
 11
26.1354767969
 21
109.5148503441
  0
LINE
  5
2C3
100
AcDbEntity
  8
0
100
AcDbLine
 62
7
  6
CONTINUOUS
 10
50.4587327694
 20
109.6648503441
 11
56.4587327694
 21
109.6648503441
  0
LINE
  5
2C4
100
AcDbEntity
  8
A_ACHSEN
100
AcDbLine
 62
8
  6
HIDDEN
 10
36.9587327694
 20
110.1648503441
 11
26.9587327694
 21
110.1648503441
  0
LINE
  5
2C5
100
AcDbEntity
  8
0
100
AcDbLine
 62
7
  6
CONTINUOUS
 10
50.912500996
 20
110.6648503441
 11
56.0049645428
 21
110.6648503441
  0
LINE
  5
2C6
100
AcDbEntity
  8
A_RUNDUNGEN
100
AcDbLine
 62
8
  6
HIDDEN
 10
44.9613507513
 20
109.3648283562
 11
26.3561147875
 21
109.4622460341
  0
LINE
  5
2C7
100
AcDbEntity
  8
DEFAULT_2
100
AcDbLine
 62
8
  6
HIDDEN
 10
26.3561147875
 20
109.4622460341
 11
37.8587327694
 21
109.4020179168
  0
LINE
  5
2C8
100
AcDbEntity
  8
A_RUNDUNGEN
100
AcDbLine
 62
8
  6
HIDDEN
 10
39.7500065662
 20
111.323730193
 11
37.5543696678
 21
111.3620551776
  0
LINE
  5
2C9
100
AcDbEntity
  8
A_RUNDUNGEN
100
AcDbLine
 62
8
  6
HIDDEN
 10
11.6070245896
 20
111.1922114949
 11
21.2349073919
 21
110.8559984188
  0
LINE
  5
2CA
100
AcDbEntity
  8
0
100
AcDbLine
 62
7
  6
CONTINUOUS
 10
46.9587327694
 20
113.6648503441
 11
50.4587327694
 21
109.6648503441
  0
LINE
  5
2CB
100
AcDbEntity
  8
0
100
AcDbLine
 62
7
  6
CONTINUOUS
 10
47.9587327694
 20
114.0405854602
 11
50.912500996
 21
110.6648503441
  0
LINE
  5
2CC
100
AcDbEntity
  8
A_RUNDUNGEN
100
AcDbLine
 62
8
  6
HIDDEN
 10
38.6023106408
 20
113.3498959091
 11
37.515154898
 21
113.2547821061
  0
LINE
  5
2CD
100
AcDbEntity
  8
A_RUNDUNGEN
100
AcDbLine
 62
8
  6
HIDDEN
 10
45.4587327694
 20
113.3148503441
 11
40.5043696678
 21
113.2283716145
  0
LINE
  5
2CE
100
AcDbEntity
  8
DEFAULT_2
100
AcDbLine
 62
8
  6
HIDDEN
 10
25.5337327694
 20
113.7148503441
 11
10.9587327694
 21
113.7148503441
  0
LINE
  5
2CF
100
AcDbEntity
  8
A_RUNDUNGEN
100
AcDbLine
 62
8
  6
HIDDEN
 10
25.3587327694
 20
113.8898503441
 11
11.6658395506
 21
113.8898503441
  0
LINE
  5
2D0
100
AcDbEntity
  8
DEFAULT_2
100
AcDbLine
 62
8
  6
HIDDEN
 10
44.1087327694
 20
114.2148503441
 11
39.0587327694
 21
114.2148503441
  0
LINE
  5
2D1
100
AcDbEntity
  8
A_RUNDUNGEN
100
AcDbLine
 62
8
  6
HIDDEN
 10
43.7516259882
 20
114.3648503441
 11
39.5587327694
 21
114.3648503441
  0
LINE
  5
2D2
100
AcDbEntity
  8
0
100
AcDbLine
 62
7
  6
CONTINUOUS
 10
58.9587327694
 20
115.6648503441
 11
47.9587327694
 21
115.6648503441
  0
LINE
  5
2D3
100
AcDbEntity
  8
0
100
AcDbLine
 62
7
  6
CONTINUOUS
 10
59.9587327694
 20
116.6648503441
 11
46.9587327694
 21
116.6648503441
  0
LINE
  5
2D4
100
AcDbEntity
  8
A_RUNDUNGEN
100
AcDbLine
 62
8
  6
HIDDEN
 10
11.6070245896
 20
121.2374891933
 11
21.2349073919
 21
121.5737022693
  0
LINE
  5
2D5
100
AcDbEntity
  8
A_RUNDUNGEN
100
AcDbLine
 62
8
  6
HIDDEN
 10
39.7500065662
 20
121.1059704952
 11
37.5543696678
 21
121.0676455106
  0
LINE
  5
2D6
100
AcDbEntity
  8
A_RUNDUNGEN
100
AcDbLine
 62
8
  6
HIDDEN
 10
43.7516259882
 20
118.0648503441
 11
39.5587327694
 21
118.0648503441
  0
LINE
  5
2D7
100
AcDbEntity
  8
DEFAULT_2
100
AcDbLine
 62
8
  6
HIDDEN
 10
44.1087327694
 20
118.2148503441
 11
39.0587327694
 21
118.2148503441
  0
LINE
  5
2D8
100
AcDbEntity
  8
A_RUNDUNGEN
100
AcDbLine
 62
8
  6
HIDDEN
 10
25.3587327694
 20
118.5398503441
 11
11.6658395506
 21
118.5398503441
  0
LINE
  5
2D9
100
AcDbEntity
  8
DEFAULT_2
100
AcDbLine
 62
8
  6
HIDDEN
 10
25.5337327694
 20
118.7148503441
 11
10.9587327694
 21
118.7148503441
  0
LINE
  5
2DA
100
AcDbEntity
  8
A_ACHSEN
100
AcDbLine
 62
8
  6
HIDDEN
 10
36.9587327694
 20
122.1648503441
 11
26.9587327694
 21
122.1648503441
  0
LINE
  5
2DB
100
AcDbEntity
  8
A_RUNDUNGEN
100
AcDbLine
 62
8
  6
HIDDEN
 10
45.4587327694
 20
119.1148503441
 11
40.5043696678
 21
119.2013290737
  0
LINE
  5
2DC
100
AcDbEntity
  8
A_RUNDUNGEN
100
AcDbLine
 62
8
  6
HIDDEN
 10
38.6023106408
 20
119.0798047791
 11
37.515154898
 21
119.1749185821
  0
LINE
  5
2DD
100
AcDbEntity
  8
DEFAULT_2
100
AcDbLine
 62
8
  6
HIDDEN
 10
26.3561147875
 20
122.9674546541
 11
37.8587327694
 21
123.0276827714
  0
LINE
  5
2DE
100
AcDbEntity
  8
A_RUNDUNGEN
100
AcDbLine
 62
8
  6
HIDDEN
 10
26.3561147875
 20
122.9674546541
 11
44.9613507513
 21
123.064872332
  0
LINE
  5
2DF
100
AcDbEntity
  8
DEFAULT_2
100
AcDbLine
 62
8
  6
HIDDEN
 10
26.1354767969
 20
122.9148503441
 11
37.8587327694
 21
122.9148503441
  0
LINE
  5
2E0
100
AcDbEntity
  8
DEFAULT_2
100
AcDbLine
 62
8
  6
HIDDEN
 10
46.9587327694
 20
124.3648503441
 11
43.8587327694
 21
124.3648503441
  0
LINE
  5
2E1
100
AcDbEntity
  8
DEFAULT_2
100
AcDbLine
 62
8
  6
HIDDEN
 10
46.9587327694
 20
124.5148503441
 11
43.8587327694
 21
124.5148503441
  0
LINE
  5
2E2
100
AcDbEntity
  8
A_ACHSEN
100
AcDbLine
 62
8
  6
HIDDEN
 10
36.9587327694
 20
125.1648503441
 11
26.9587327694
 21
125.1648503441
  0
LINE
  5
2E3
100
AcDbEntity
  8
A_RUNDUNGEN
100
AcDbLine
 62
8
  6
HIDDEN
 10
39.7500065662
 20
126.323730193
 11
37.5543696678
 21
126.3620551776
  0
LINE
  5
2E4
100
AcDbEntity
  8
0
100
AcDbLine
 62
7
  6
CONTINUOUS
 10
38.5107930831
 20
2.8168129152
 11
39.0107930831
 21
3.3168129152
  0
LINE
  5
2E5
100
AcDbEntity
  8
A_RUNDUNGEN
100
AcDbLine
 62
8
  6
HIDDEN
 10
45.4587327694
 20
128.3148503441
 11
40.5043696678
 21
128.2283716145
  0
LINE
  5
2E6
100
AcDbEntity
  8
A_RUNDUNGEN
100
AcDbLine
 62
8
  6
HIDDEN
 10
45.4587327694
 20
130.1648503441
 11
11.6233714173
 21
129.8695736189
  0
LINE
  5
2E7
100
AcDbEntity
  8
A_RUNDUNGEN
100
AcDbLine
 62
8
  6
HIDDEN
 10
44.9613507513
 20
129.1381768305
 11
12.3561147875
 21
128.9674546541
  0
LINE
  5
2E8
100
AcDbEntity
  8
DEFAULT_2
100
AcDbLine
 62
8
  6
HIDDEN
 10
46.9587327694
 20
128.2148503441
 11
43.8587327694
 21
128.2148503441
  0
LINE
  5
2E9
100
AcDbEntity
  8
DEFAULT_2
100
AcDbLine
 62
8
  6
HIDDEN
 10
46.9587327694
 20
128.3648503441
 11
43.8587327694
 21
128.3648503441
  0
LINE
  5
2EA
100
AcDbEntity
  8
A_ACHSEN
100
AcDbLine
 62
8
  6
HIDDEN
 10
44.9587327694
 20
129.0148503441
 11
43.8587327694
 21
129.0148503441
  0
LINE
  5
2EB
100
AcDbEntity
  8
DEFAULT_2
100
AcDbLine
 62
8
  6
HIDDEN
 10
59.9587327694
 20
130.1648503441
 11
9.9587327694
 21
130.1648503441
  0
LINE
  5
2EC
100
AcDbEntity
  8
0
100
AcDbLine
 62
7
  6
CONTINUOUS
 10
59.9587327694
 20
148.1648503441
 11
6.9587327694
 21
148.1648503441
  0
ARC
  5
2ED
100
AcDbEntity
  8
A_RUNDUNGEN
100
AcDbCircle
 62
7
  6
CONTINUOUS
 10
26.4107930831
 20
75.6168129152
 40
2.0
100
AcDbArc
 50
180.0
 51
270.0
  0
ARC
  5
2EE
100
AcDbEntity
  8
A_RUNDUNGEN
100
AcDbCircle
 62
7
  6
CONTINUOUS
 10
29.4107930831
 20
82.6168129152
 40
1.0
100
AcDbArc
 50
90.0
 51
180.0
  0
ARC
  5
2EF
100
AcDbEntity
  8
A_ACHSEN
100
AcDbCircle
 62
8
  6
HIDDEN
 10
31.9107891413
 20
88.6168243999
 40
3.0
100
AcDbArc
 50
107.798301905
 51
302.798301905
  0
ARC
  5
2F0
100
AcDbEntity
  8
A_ACHSEN
100
AcDbCircle
 62
8
  6
HIDDEN
 10
36.9107893838
 20
88.6168167803
 40
3.0
100
AcDbArc
 50
147.1179724641
 51
335.0832724641
  0
CIRCLE
  5
2F1
100
AcDbEntity
  8
DEFAULT_2
100
AcDbCircle
 62
8
  6
HIDDEN
 10
36.9107893838
 20
88.6168167803
 40
2.5
  0
CIRCLE
  5
2F2
100
AcDbEntity
  8
DEFAULT_2
100
AcDbCircle
 62
8
  6
HIDDEN
 10
31.9107891413
 20
88.6168243999
 40
2.5
  0
CIRCLE
  5
2F3
100
AcDbEntity
  8
A_FASEN
100
AcDbCircle
 62
8
  6
HIDDEN
 10
36.9107893838
 20
88.6168167803
 40
2.2
  0
CIRCLE
  5
2F4
100
AcDbEntity
  8
DEFAULT_2
100
AcDbCircle
 62
8
  6
HIDDEN
 10
31.9107891413
 20
88.6168243999
 40
2.2
  0
CIRCLE
  5
2F5
100
AcDbEntity
  8
DEFAULT_2
100
AcDbCircle
 62
8
  6
HIDDEN
 10
36.9107893838
 20
88.6168167803
 40
2.2
  0
CIRCLE
  5
2F6
100
AcDbEntity
  8
0
100
AcDbCircle
 62
7
  6
CONTINUOUS
 10
36.9107930831
 20
88.6168129152
 40
2.0
  0
CIRCLE
  5
2F7
100
AcDbEntity
  8
A_FASEN
100
AcDbCircle
 62
8
  6
HIDDEN
 10
36.9107893838
 20
88.6168167803
 40
1.85
  0
CIRCLE
  5
2F8
100
AcDbEntity
  8
0
100
AcDbCircle
 62
7
  6
CONTINUOUS
 10
31.9107930831
 20
88.6168129152
 40
1.75
  0
ARC
  5
2F9
100
AcDbEntity
  8
0
100
AcDbCircle
 62
7
  6
CONTINUOUS
 10
36.9107930831
 20
88.6168129152
 40
1.75
100
AcDbArc
 50
222.3585678561
 51
23.1220366725
  0
ARC
  5
2FA
100
AcDbEntity
  8
A_RUNDUNGEN
100
AcDbCircle
 62
8
  6
HIDDEN
 10
35.1804112975
 20
101.5070988881
 40
10.0
100
AcDbArc
 50
335.0832724641
 51
29.3181724641
  0
ARC
  5
2FB
100
AcDbEntity
  8
A_RUNDUNGEN
100
AcDbCircle
 62
8
  6
HIDDEN
 10
36.9664764485
 20
97.8230354735
 40
8.0
100
AcDbArc
 50
302.798301905
 51
308.7414735993
  0
ARC
  5
2FC
100
AcDbEntity
  8
A_RUNDUNGEN
100
AcDbCircle
 62
8
  6
HIDDEN
 10
36.9664764485
 20
97.8230354735
 40
8.0
100
AcDbArc
 50
355.2628616466
 51
17.798301905
  0
ARC
  5
2FD
100
AcDbEntity
  8
A_RUNDUNGEN
100
AcDbCircle
 62
7
  6
CONTINUOUS
 10
36.9664764485
 20
97.8230354735
 40
8.0
100
AcDbArc
 50
308.7414735993
 51
355.2628616466
  0
ARC
  5
2FE
100
AcDbEntity
  8
A_RUNDUNGEN
100
AcDbCircle
 62
8
  6
HIDDEN
 10
35.775988081
 20
98.25981705
 40
5.0
100
AcDbArc
 50
347.3368683038
 51
17.798301905
  0
ARC
  5
2FF
100
AcDbEntity
  8
A_RUNDUNGEN
100
AcDbCircle
 62
8
  6
HIDDEN
 10
36.0440484589
 20
102.0114961272
 40
5.0
100
AcDbArc
 50
327.1179724641
 51
29.3181724641
  0
ARC
  5
300
100
AcDbEntity
  8
A_RUNDUNGEN
100
AcDbCircle
 62
7
  6
CONTINUOUS
 10
35.775988081
 20
98.25981705
 40
5.0
100
AcDbArc
 50
287.798301905
 51
347.3368683038
  0
ARC
  5
301
100
AcDbEntity
  8
A_RUNDUNGEN
100
AcDbCircle
 62
7
  6
CONTINUOUS
 10
26.4107930831
 20
92.6168129152
 40
2.0
100
AcDbArc
 50
90.0
 51
180.0
  0
ARC
  5
302
100
AcDbEntity
  8
A_RUNDUNGEN
100
AcDbCircle
 62
7
  6
CONTINUOUS
 10
33.2428845501
 20
98.6648503441
 40
1.5
100
AcDbArc
 50
252.2553283749
 51
270.0
  0
ARC
  5
303
100
AcDbEntity
  8
A_RUNDUNGEN
100
AcDbCircle
 62
7
  6
CONTINUOUS
 10
32.0087327694
 20
97.9148503441
 40
0.25
100
AcDbArc
 50
90.0
 51
180.0
  0
ARC
  5
304
100
AcDbEntity
  8
A_RUNDUNGEN
100
AcDbCircle
 62
7
  6
CONTINUOUS
 10
32.0087327694
 20
97.7473384391
 40
0.25
100
AcDbArc
 50
180.0
 51
252.2553283749
  0
ARC
  5
305
100
AcDbEntity
  8
A_RUNDUNGEN
100
AcDbCircle
 62
7
  6
CONTINUOUS
 10
48.4107930831
 20
77.6168129152
 40
4.0
100
AcDbArc
 50
270.0
 51
360.0
  0
ARC
  5
306
100
AcDbEntity
  8
A_RUNDUNGEN
100
AcDbCircle
 62
7
  6
CONTINUOUS
 10
42.526091872
 20
82.6168129152
 40
1.0
100
AcDbArc
 50
90.0
 51
125.0
  0
ARC
  5
307
100
AcDbEntity
  8
A_RUNDUNGEN
100
AcDbCircle
 62
7
  6
CONTINUOUS
 10
43.2107930831
 20
78.3673799657
 40
1.0
100
AcDbArc
 50
305.0
 51
360.0
  0
ARC
  5
308
100
AcDbEntity
  8
A_RUNDUNGEN
100
AcDbCircle
 62
7
  6
CONTINUOUS
 10
38.9107930831
 20
82.6168129152
 40
1.0
100
AcDbArc
 50
359.5106817518
 51
90.0
  0
ARC
  5
309
100
AcDbEntity
  8
A_RUNDUNGEN
100
AcDbCircle
 62
7
  6
CONTINUOUS
 10
43.2107930831
 20
78.0393281957
 40
1.0
100
AcDbArc
 50
304.824489157
 51
360.0
  0
ARC
  5
30A
100
AcDbEntity
  8
A_RUNDUNGEN
100
AcDbCircle
 62
7
  6
CONTINUOUS
 10
43.7107930831
 20
83.1168129152
 40
0.5
100
AcDbArc
 50
0.0
 51
90.0
  0
ARC
  5
30B
100
AcDbEntity
  8
A_RUNDUNGEN
100
AcDbCircle
 62
7
  6
CONTINUOUS
 10
41.3107930831
 20
82.6203937542
 40
0.3
100
AcDbArc
 50
125.0
 51
180.0
  0
ARC
  5
30C
100
AcDbEntity
  8
A_RUNDUNGEN
100
AcDbCircle
 62
7
  6
CONTINUOUS
 10
41.3107930831
 20
76.182443431
 40
0.3
100
AcDbArc
 50
180.0
 51
305.0
  0
ARC
  5
30D
100
AcDbEntity
  8
A_RUNDUNGEN
100
AcDbCircle
 62
7
  6
CONTINUOUS
 10
40.1107930831
 20
82.608272493
 40
0.2
100
AcDbArc
 50
180.0
 51
304.824489157
  0
ARC
  5
30E
100
AcDbEntity
  8
A_RUNDUNGEN
100
AcDbCircle
 62
7
  6
CONTINUOUS
 10
41.9735162263
 20
83.4168129152
 40
0.2
100
AcDbArc
 50
90.0
 51
124.824489157
  0
ARC
  5
30F
100
AcDbEntity
  8
A_RUNDUNGEN
100
AcDbCircle
 62
8
  6
HIDDEN
 10
37.6638064188
 20
102.5828851554
 40
0.25
100
AcDbArc
 50
224.75
 51
269.5
  0
ARC
  5
310
100
AcDbEntity
  8
A_RUNDUNGEN
100
AcDbCircle
 62
7
  6
CONTINUOUS
 10
46.7087327694
 20
97.9148503441
 40
0.25
100
AcDbArc
 50
0.0
 51
67.5
  0
ARC
  5
311
100
AcDbEntity
  8
A_RUNDUNGEN
100
AcDbCircle
 62
8
  6
HIDDEN
 10
11.4587327694
 20
103.2717572281
 40
0.5
100
AcDbArc
 50
180.0
 51
224.75
  0
ARC
  5
312
100
AcDbEntity
  8
A_RUNDUNGEN
100
AcDbCircle
 62
8
  6
HIDDEN
 10
12.3587327694
 20
103.9122391803
 40
0.5
100
AcDbArc
 50
180.0
 51
269.7
  0
ARC
  5
313
100
AcDbEntity
  8
A_RUNDUNGEN
100
AcDbCircle
 62
8
  6
HIDDEN
 10
11.6268620315
 20
102.9601118385
 40
0.4
100
AcDbArc
 50
224.75
 51
269.5
  0
ARC
  5
314
100
AcDbEntity
  8
A_RUNDUNGEN
100
AcDbCircle
 62
8
  6
HIDDEN
 10
11.4587327694
 20
111.9039399495
 40
0.5
100
AcDbArc
 50
180.0
 51
224.0
  0
ARC
  5
315
100
AcDbEntity
  8
A_RUNDUNGEN
100
AcDbCircle
 62
8
  6
HIDDEN
 10
11.4587327694
 20
113.1827435629
 40
0.5
100
AcDbArc
 50
135.000001341
 51
179.9999994984
  0
ARC
  5
316
100
AcDbEntity
  8
A_RUNDUNGEN
100
AcDbCircle
 62
8
  6
HIDDEN
 10
11.6658395506
 20
113.3898503441
 40
0.5
100
AcDbArc
 50
90.0
 51
135.0000070685
  0
ARC
  5
317
100
AcDbEntity
  8
A_RUNDUNGEN
100
AcDbCircle
 62
8
  6
HIDDEN
 10
11.6209843883
 20
111.5919678257
 40
0.4
100
AcDbArc
 50
224.0
 51
268.0
  0
ARC
  5
318
100
AcDbEntity
  8
A_ACHSEN
100
AcDbCircle
 62
8
  6
HIDDEN
 10
25.5087327694
 20
107.3148503441
 40
3.0
100
AcDbArc
 50
109.798301905
 51
292.798301905
  0
ARC
  5
319
100
AcDbEntity
  8
A_ACHSEN
100
AcDbCircle
 62
8
  6
HIDDEN
 10
19.5087327694
 20
106.8148503441
 40
3.0
100
AcDbArc
 50
114.5921724641
 51
300.6501724641
  0
CIRCLE
  5
31A
100
AcDbEntity
  8
A_ACHSEN
100
AcDbCircle
 62
8
  6
HIDDEN
 10
19.5087327694
 20
106.8148503441
 40
2.5
  0
CIRCLE
  5
31B
100
AcDbEntity
  8
DEFAULT_2
100
AcDbCircle
 62
8
  6
HIDDEN
 10
25.5087327694
 20
107.3148503441
 40
2.5
  0
CIRCLE
  5
31C
100
AcDbEntity
  8
A_FASEN
100
AcDbCircle
 62
8
  6
HIDDEN
 10
19.5087327694
 20
106.8148503441
 40
2.2
  0
CIRCLE
  5
31D
100
AcDbEntity
  8
DEFAULT_2
100
AcDbCircle
 62
8
  6
HIDDEN
 10
25.5087327694
 20
107.3148503441
 40
2.2
  0
CIRCLE
  5
31E
100
AcDbEntity
  8
A_ACHSEN
100
AcDbCircle
 62
8
  6
HIDDEN
 10
19.5087327694
 20
106.8148503441
 40
2.2
  0
CIRCLE
  5
31F
100
AcDbEntity
  8
A_FASEN
100
AcDbCircle
 62
8
  6
HIDDEN
 10
19.5087327694
 20
106.8148503441
 40
1.85
  0
ARC
  5
320
100
AcDbEntity
  8
A_RUNDUNGEN
100
AcDbCircle
 62
8
  6
HIDDEN
 10
21.2087327694
 20
110.1064552986
 40
0.75
100
AcDbArc
 50
0.0
 51
87.9999999811
  0
ARC
  5
321
100
AcDbEntity
  8
DEFAULT_2
100
AcDbCircle
 62
8
  6
HIDDEN
 10
26.3587327694
 20
109.9622391803
 40
0.5
100
AcDbArc
 50
243.4798867806
 51
269.7
  0
ARC
  5
322
100
AcDbEntity
  8
A_RUNDUNGEN
100
AcDbCircle
 62
8
  6
HIDDEN
 10
26.3587327694
 20
109.9622391803
 40
0.5
100
AcDbArc
 50
180.0
 51
269.7
  0
ARC
  5
323
100
AcDbEntity
  8
A_RUNDUNGEN
100
AcDbCircle
 62
8
  6
HIDDEN
 10
21.2087327694
 20
122.3232453896
 40
0.75
100
AcDbArc
 50
272.0
 51
360.0
  0
ARC
  5
324
100
AcDbEntity
  8
DEFAULT_2
100
AcDbCircle
 62
8
  6
HIDDEN
 10
26.3587327694
 20
122.4674615079
 40
0.5
100
AcDbArc
 50
90.3
 51
116.5201132194
  0
ARC
  5
325
100
AcDbEntity
  8
A_RUNDUNGEN
100
AcDbCircle
 62
8
  6
HIDDEN
 10
11.4587327694
 20
129.1579434601
 40
0.5
100
AcDbArc
 50
135.25
 51
180.0
  0
ARC
  5
326
100
AcDbEntity
  8
A_RUNDUNGEN
100
AcDbCircle
 62
8
  6
HIDDEN
 10
11.4587327694
 20
120.5257607387
 40
0.5
100
AcDbArc
 50
136.0
 51
180.0
  0
ARC
  5
327
100
AcDbEntity
  8
A_RUNDUNGEN
100
AcDbCircle
 62
8
  6
HIDDEN
 10
26.3587327694
 20
122.4674615079
 40
0.5
100
AcDbArc
 50
90.3
 51
180.0
  0
ARC
  5
328
100
AcDbEntity
  8
A_RUNDUNGEN
100
AcDbCircle
 62
8
  6
HIDDEN
 10
11.4587327694
 20
119.2469571253
 40
0.5
100
AcDbArc
 50
180.0000005016
 51
224.999998659
  0
ARC
  5
329
100
AcDbEntity
  8
A_RUNDUNGEN
100
AcDbCircle
 62
8
  6
HIDDEN
 10
11.6658395506
 20
119.0398503441
 40
0.5
100
AcDbArc
 50
224.9999929315
 51
270.0
  0
ARC
  5
32A
100
AcDbEntity
  8
A_RUNDUNGEN
100
AcDbCircle
 62
8
  6
HIDDEN
 10
12.3587327694
 20
128.4674615079
 40
0.5
100
AcDbArc
 50
90.3
 51
180.0
  0
ARC
  5
32B
100
AcDbEntity
  8
A_RUNDUNGEN
100
AcDbCircle
 62
8
  6
HIDDEN
 10
11.6268620315
 20
129.4695888497
 40
0.4
100
AcDbArc
 50
90.5
 51
135.25
  0
ARC
  5
32C
100
AcDbEntity
  8
A_RUNDUNGEN
100
AcDbCircle
 62
8
  6
HIDDEN
 10
11.6209843883
 20
120.8377328625
 40
0.4
100
AcDbArc
 50
92.0
 51
136.0
  0
ARC
  5
32D
100
AcDbEntity
  8
A_RUNDUNGEN
100
AcDbCircle
 62
8
  6
HIDDEN
 10
35.8484895166
 20
107.8485779184
 40
6.0
100
AcDbArc
 50
17.798301905
 51
109.798301905
  0
ARC
  5
32E
100
AcDbEntity
  8
A_RUNDUNGEN
100
AcDbCircle
 62
8
  6
HIDDEN
 10
35.6857297019
 20
105.0840338771
 40
3.0
100
AcDbArc
 50
17.798301905
 51
112.798301905
  0
ARC
  5
32F
100
AcDbEntity
  8
A_RUNDUNGEN
100
AcDbCircle
 62
8
  6
HIDDEN
 10
37.3087327694
 20
104.9318376422
 40
0.25
100
AcDbArc
 50
120.0
 51
180.0
  0
ARC
  5
330
100
AcDbEntity
  8
A_RUNDUNGEN
100
AcDbCircle
 62
8
  6
HIDDEN
 10
37.5587327694
 20
105.8176835868
 40
0.25
100
AcDbArc
 50
91.0
 51
180.0
  0
ARC
  5
331
100
AcDbEntity
  8
A_RUNDUNGEN
100
AcDbCircle
 62
8
  6
HIDDEN
 10
37.3087327694
 20
102.9410710062
 40
0.25
100
AcDbArc
 50
180.0
 51
224.7499999931
  0
ARC
  5
332
100
AcDbEntity
  8
A_RUNDUNGEN
100
AcDbCircle
 62
8
  6
HIDDEN
 10
37.0587327694
 20
105.3648503441
 40
0.25
100
AcDbArc
 50
300.0
 51
360.0
  0
ARC
  5
333
100
AcDbEntity
  8
A_RUNDUNGEN
100
AcDbCircle
 62
8
  6
HIDDEN
 10
35.1493532715
 20
111.7735898849
 40
5.0
100
AcDbArc
 50
29.3181724641
 51
114.5921724641
  0
ARC
  5
334
100
AcDbEntity
  8
A_RUNDUNGEN
100
AcDbCircle
 62
8
  6
HIDDEN
 10
34.9218674859
 20
110.1364262217
 40
2.0
100
AcDbArc
 50
29.3181724641
 51
120.6501724641
  0
ARC
  5
335
100
AcDbEntity
  8
A_RUNDUNGEN
100
AcDbCircle
 62
8
  6
HIDDEN
 10
37.5587327694
 20
112.7566847571
 40
0.5
100
AcDbArc
 50
95.0000001291
 51
180.0
  0
ARC
  5
336
100
AcDbEntity
  8
A_RUNDUNGEN
100
AcDbCircle
 62
8
  6
HIDDEN
 10
37.3087327694
 20
112.497863046
 40
0.25
100
AcDbArc
 50
180.0
 51
240.0
  0
ARC
  5
337
100
AcDbEntity
  8
A_RUNDUNGEN
100
AcDbCircle
 62
8
  6
HIDDEN
 10
37.5587327694
 20
111.6120171014
 40
0.25
100
AcDbArc
 50
180.0
 51
269.0
  0
ARC
  5
338
100
AcDbEntity
  8
A_RUNDUNGEN
100
AcDbCircle
 62
8
  6
HIDDEN
 10
37.0587327694
 20
112.0648503441
 40
0.25
100
AcDbArc
 50
0.0
 51
60.0
  0
ARC
  5
339
100
AcDbEntity
  8
A_RUNDUNGEN
100
AcDbCircle
 62
8
  6
HIDDEN
 10
39.050081401
 20
107.7648503441
 40
0.5
100
AcDbArc
 50
90.0
 51
179.0
  0
ARC
  5
33A
100
AcDbEntity
  8
A_RUNDUNGEN
100
AcDbCircle
 62
8
  6
HIDDEN
 10
41.4673841379
 20
107.7648503441
 40
0.5
100
AcDbArc
 50
1.0
 51
90.0
  0
ARC
  5
33B
100
AcDbEntity
  8
A_RUNDUNGEN
100
AcDbCircle
 62
8
  6
HIDDEN
 10
39.7587327694
 20
105.6060466476
 40
0.5
100
AcDbArc
 50
0.0
 51
91.0
  0
ARC
  5
33C
100
AcDbEntity
  8
A_RUNDUNGEN
100
AcDbCircle
 62
8
  6
HIDDEN
 10
40.5087327694
 20
104.4512909975
 40
0.25
100
AcDbArc
 50
180.0
 51
269.0
  0
ARC
  5
33D
100
AcDbEntity
  8
A_RUNDUNGEN
100
AcDbCircle
 62
8
  6
HIDDEN
 10
39.7587327694
 20
111.8236540406
 40
0.5
100
AcDbArc
 50
269.0
 51
360.0
  0
ARC
  5
33E
100
AcDbEntity
  8
A_RUNDUNGEN
100
AcDbCircle
 62
8
  6
HIDDEN
 10
39.5587327694
 20
113.8648503441
 40
0.5
100
AcDbArc
 50
90.0
 51
179.9999994494
  0
ARC
  5
33F
100
AcDbEntity
  8
A_RUNDUNGEN
100
AcDbCircle
 62
8
  6
HIDDEN
 10
38.5587327694
 20
113.8479932582
 40
0.5
100
AcDbArc
 50
275.0
 51
360.0
  0
ARC
  5
340
100
AcDbEntity
  8
A_RUNDUNGEN
100
AcDbCircle
 62
8
  6
HIDDEN
 10
40.5087327694
 20
112.9784096907
 40
0.25
100
AcDbArc
 50
91.0
 51
180.0
  0
ARC
  5
341
100
AcDbEntity
  8
A_RUNDUNGEN
100
AcDbCircle
 62
8
  6
HIDDEN
 10
38.9587327694
 20
123.5334492645
 40
0.5
100
AcDbArc
 50
270.3
 51
360.0
  0
ARC
  5
342
100
AcDbEntity
  8
A_RUNDUNGEN
100
AcDbCircle
 62
8
  6
HIDDEN
 10
39.7587327694
 20
120.6060466476
 40
0.5
100
AcDbArc
 50
0.0
 51
91.0
  0
ARC
  5
343
100
AcDbEntity
  8
A_RUNDUNGEN
100
AcDbCircle
 62
8
  6
HIDDEN
 10
39.5587327694
 20
118.5648503441
 40
0.5
100
AcDbArc
 50
180.0000005506
 51
270.0
  0
ARC
  5
344
100
AcDbEntity
  8
A_RUNDUNGEN
100
AcDbCircle
 62
8
  6
HIDDEN
 10
37.5587327694
 20
119.6730159311
 40
0.5
100
AcDbArc
 50
180.0
 51
265.0
  0
ARC
  5
345
100
AcDbEntity
  8
A_RUNDUNGEN
100
AcDbCircle
 62
8
  6
HIDDEN
 10
38.5587327694
 20
118.58170743
 40
0.5
100
AcDbArc
 50
0.0
 51
85.0
  0
ARC
  5
346
100
AcDbEntity
  8
A_RUNDUNGEN
100
AcDbCircle
 62
8
  6
HIDDEN
 10
37.3087327694
 20
119.9318376422
 40
0.25
100
AcDbArc
 50
120.0
 51
180.0
  0
ARC
  5
347
100
AcDbEntity
  8
A_RUNDUNGEN
100
AcDbCircle
 62
8
  6
HIDDEN
 10
40.5087327694
 20
119.4512909975
 40
0.25
100
AcDbArc
 50
180.0
 51
269.0
  0
ARC
  5
348
100
AcDbEntity
  8
A_RUNDUNGEN
100
AcDbCircle
 62
8
  6
HIDDEN
 10
37.5587327694
 20
120.8176835868
 40
0.25
100
AcDbArc
 50
91.0
 51
180.0
  0
ARC
  5
349
100
AcDbEntity
  8
A_RUNDUNGEN
100
AcDbCircle
 62
8
  6
HIDDEN
 10
37.0587327694
 20
120.3648503441
 40
0.25
100
AcDbArc
 50
300.0
 51
360.0
  0
ARC
  5
34A
100
AcDbEntity
  8
A_RUNDUNGEN
100
AcDbCircle
 62
8
  6
HIDDEN
 10
39.7587327694
 20
126.8236540406
 40
0.5
100
AcDbArc
 50
269.0
 51
360.0
  0
ARC
  5
34B
100
AcDbEntity
  8
A_RUNDUNGEN
100
AcDbCircle
 62
8
  6
HIDDEN
 10
37.3087327694
 20
127.497863046
 40
0.25
100
AcDbArc
 50
180.0
 51
240.0
  0
ARC
  5
34C
100
AcDbEntity
  8
A_RUNDUNGEN
100
AcDbCircle
 62
8
  6
HIDDEN
 10
40.5087327694
 20
127.9784096907
 40
0.25
100
AcDbArc
 50
91.0
 51
180.0
  0
ARC
  5
34D
100
AcDbEntity
  8
A_RUNDUNGEN
100
AcDbCircle
 62
8
  6
HIDDEN
 10
37.5587327694
 20
126.6120171014
 40
0.25
100
AcDbArc
 50
180.0
 51
269.0
  0
ARC
  5
34E
100
AcDbEntity
  8
A_RUNDUNGEN
100
AcDbCircle
 62
8
  6
HIDDEN
 10
37.3087327694
 20
129.488629682
 40
0.25
100
AcDbArc
 50
135.25
 51
180.0
  0
ARC
  5
34F
100
AcDbEntity
  8
A_RUNDUNGEN
100
AcDbCircle
 62
8
  6
HIDDEN
 10
37.6638064188
 20
129.8468155328
 40
0.25
100
AcDbArc
 50
90.5
 51
135.2500000171
  0
ARC
  5
350
100
AcDbEntity
  8
A_RUNDUNGEN
100
AcDbCircle
 62
8
  6
HIDDEN
 10
37.0587327694
 20
127.0648503441
 40
0.25
100
AcDbArc
 50
0.0
 51
60.0
  0
ARC
  5
351
100
AcDbEntity
  8
A_RUNDUNGEN
100
AcDbCircle
 62
8
  6
HIDDEN
 10
44.9587327694
 20
129.5148503441
 40
0.5
100
AcDbArc
 50
270.0
 51
360.0
  0
ARC
  5
352
100
AcDbEntity
  8
A_RUNDUNGEN
100
AcDbCircle
 62
8
  6
HIDDEN
 10
44.9587327694
 20
129.6381699766
 40
0.5
100
AcDbArc
 50
270.3
 51
360.0
  0
ARC
  5
353
100
AcDbEntity
  8
A_RUNDUNGEN
100
AcDbCircle
 62
8
  6
HIDDEN
 10
105.7245416616
 20
116.6891098282
 40
66.6658166097
100
AcDbArc
 50
180.0275693117
 51
180.1829780698
  0
SPLINE
  5
354
100
AcDbEntity
  8
DEFAULT_2
100
AcDbSpline
 62
8
  6
HIDDEN
 70
0
 71
3
 72
13
 73
9
 74
0
 42
0.0000001
 43
0.0000001
 44
0.0000000001
 40
0.0
 40
0.0
 40
0.0
 40
0.0
 40
0.250768581
 40
0.375490064
 40
0.5000012175
 40
0.6245129445
 40
0.7492343186
 40
1.0
 40
1.0
 40
1.0
 40
1.0
 10
49.4777803812
 20
79.1168129152
 30
0.0
 10
49.4373479253
 20
79.2381102828
 30
0.0
 10
49.3863668947
 20
79.4235000211
 30
0.0
 10
49.3501236255
 20
79.6761699022
 30
0.0
 10
49.3412186148
 20
79.8668150564
 30
0.0
 10
49.3501297842
 20
80.0574594563
 30
0.0
 10
49.3863632722
 20
80.3101294327
 30
0.0
 10
49.4373483928
 20
80.4955169501
 30
0.0
 10
49.4777803812
 20
80.6168129152
 30
0.0
  0
SPLINE
  5
355
100
AcDbEntity
  8
DEFAULT_2
100
AcDbSpline
 62
8
  6
HIDDEN
 70
0
 71
3
 72
13
 73
9
 74
0
 42
0.0000001
 43
0.0000001
 44
0.0000000001
 40
0.0
 40
0.0
 40
0.0
 40
0.0
 40
0.250768581
 40
0.375490064
 40
0.5000012175
 40
0.6245129445
 40
0.7492343186
 40
1.0
 40
1.0
 40
1.0
 40
1.0
 10
49.4777803812
 20
80.6168129152
 30
0.0
 10
49.4373479253
 20
80.7381102828
 30
0.0
 10
49.3863668947
 20
80.9235000211
 30
0.0
 10
49.3501236255
 20
81.1761699022
 30
0.0
 10
49.3412186148
 20
81.3668150564
 30
0.0
 10
49.3501297842
 20
81.5574594563
 30
0.0
 10
49.3863632722
 20
81.8101294327
 30
0.0
 10
49.4373483928
 20
81.9955169501
 30
0.0
 10
49.4777803812
 20
82.1168129152
 30
0.0
  0
SPLINE
  5
356
100
AcDbEntity
  8
DEFAULT_2
100
AcDbSpline
 62
8
  6
HIDDEN
 70
0
 71
3
 72
11
 73
7
 74
0
 42
0.0000001
 43
0.0000001
 44
0.0000000001
 40
0.0
 40
0.0
 40
0.0
 40
0.0
 40
0.25111694
 40
0.5
 40
0.74888306
 40
1.0
 40
1.0
 40
1.0
 40
1.0
 10
52.4107930831
 20
79.1168129152
 30
0.0
 10
52.362185412
 20
79.2358769069
 30
0.0
 10
52.2876059943
 20
79.4827732231
 30
0.0
 10
52.2495314475
 20
79.8668129152
 30
0.0
 10
52.2876059943
 20
80.2508526073
 30
0.0
 10
52.362185412
 20
80.4977489235
 30
0.0
 10
52.4107930831
 20
80.6168129152
 30
0.0
  0
SPLINE
  5
357
100
AcDbEntity
  8
DEFAULT_2
100
AcDbSpline
 62
8
  6
HIDDEN
 70
0
 71
3
 72
11
 73
7
 74
0
 42
0.0000001
 43
0.0000001
 44
0.0000000001
 40
0.0
 40
0.0
 40
0.0
 40
0.0
 40
0.25111694
 40
0.5
 40
0.74888306
 40
1.0
 40
1.0
 40
1.0
 40
1.0
 10
52.4107930831
 20
80.6168129152
 30
0.0
 10
52.362185412
 20
80.7358769069
 30
0.0
 10
52.2876059943
 20
80.9827732231
 30
0.0
 10
52.2495314475
 20
81.3668129152
 30
0.0
 10
52.2876059943
 20
81.7508526073
 30
0.0
 10
52.362185412
 20
81.9977489235
 30
0.0
 10
52.4107930831
 20
82.1168129152
 30
0.0
  0
SPLINE
  5
358
100
AcDbEntity
  8
A_RUNDUNGEN
100
AcDbSpline
 62
8
  6
HIDDEN
 70
0
 71
3
 72
9
 73
5
 74
0
 42
0.0000001
 43
0.0000001
 44
0.0000000001
 40
0.0
 40
0.0
 40
0.0
 40
0.0
 40
0.4999994613
 40
1.0
 40
1.0
 40
1.0
 40
1.0
 10
39.0587327694
 20
115.7726688006
 30
0.0
 10
39.058732769
 20
115.9200627213
 30
0.0
 10
39.0603009027
 20
116.2148501853
 30
0.0
 10
39.0587327877
 20
116.5096376493
 30
0.0
 10
39.0587327694
 20
116.6570318876
 30
0.0
  0
SPLINE
  5
359
100
AcDbEntity
  8
A_RUNDUNGEN
100
AcDbSpline
 62
8
  6
HIDDEN
 70
0
 71
3
 72
10
 73
6
 74
0
 42
0.0000001
 43
0.0000001
 44
0.0000000001
 40
0.0
 40
0.0
 40
0.0
 40
0.0
 40
0.1059553304
 40
0.3549570686
 40
1.0
 40
1.0
 40
1.0
 40
1.0
 10
25.8587327694
 20
103.341552628
 30
0.0
 10
25.8760735013
 20
103.3593435363
 30
0.0
 10
25.9344308956
 20
103.4186819809
 30
0.0
 10
26.100564245
 20
103.5841427918
 30
0.0
 10
26.2488911174
 20
103.732269499
 30
0.0
 10
26.3561147875
 20
103.8389346818
 30
0.0
  0
ENDSEC
  0
SECTION
  2
OBJECTS
  0
DICTIONARY
  5
35A
100
AcDbDictionary
  3
ACAD_GROUP
350
35B
  3
ACAD_MLINESTYLE
350
35C
  0
DICTIONARY
  5
35B
102
{ACAD_REACTORS
330
35A
102
}
100
AcDbDictionary
  0
DICTIONARY
  5
35C
102
{ACAD_REACTORS
330
35A
102
}
100
AcDbDictionary
  3
STANDARD
350
35D
  0
MLINESTYLE
  5
35D
102
{ACAD_REACTORS
330
35C
102
}
100
AcDbMlineStyle
  2
STANDARD
 70
0
  3

 62
256
 51
90.0
 52
90.0
 71
2
 49
0.5
 62
256
  6
BYLAYER
 49
-0.5
 62
256
  6
BYLAYER
  0
ENDSEC
  0
EOF
